artist:HIM
album:love metal
tabber:nick
Intro
e|--------------------------------------------|
b|--------------------------------------------|
g|--------------------------------------------| x3
d|--------------------------------------------|
a|--------------------------------------------|
e|----0-0-15p0-15p0-0-14p0-14p0-0-10-0-10-12--|
e|-----------------------------------------|
b|-----------------------------------------| x1 - repeat the whole thing twice
g|-----------------------------------------|
d|-----------------------------------------|
a|-----------------------------------------|
e|---0-15p0-15p0-0-14p0-14p0-0-10---10-12--|
Verse.....
e|-----0------0------2---|
b|-----0------1------3---|
g|-----0------0------2---|
d|-----2------2------0---|
a|-----2------3------0---|
e|-----0------0------0---|
Em C D
Brigde to chrous.....
e|--------------------------------7^---|
b|-------------------------------------|
g|-----xx55--xx77----------------------|
d|-----xx55--xx77----------------------|
a|-----xx33--xx55----------------------|
e|----------------------0h3------------|
e|----------------------------------7^-----|
b|-----------------------------------------|
g|-----xx55--xx77--------------------------|
d|-----xx55--xx77--------------------------|
a|-----xx33--xx55------4h5-----------------|
e|-----------------------------------------|
Chrous...... x2
e|---------------------------------------------------------------------------
b|-------------------------------------------------------11111---------------
g|-----=-------------55555----77777----------------22222-------5555--7777----
d|-22222222222222----55555----77777---222222222----22222-------5555--7777----
a|-22222222222222----33333----55555---222222222----00000-------3333--5555----
e|-00000000000000---------------------000000000------------------------------
listen for the amount of strumming.....
you can also play the intro through the chrous..
brigde to verse.....
e|--------------------------------------------|
b|--------------------------------------------|
g|--------------------------------------------| x3
d|--------------------------------------------|
a|--------------------------------------------|
e|----0-0-15p0-15p0-0-14p0-14p0-0-10-0-10-12--|
e|-----------------------------------------|
b|-----------------------------------------| x1 - repeat the whole thing twice
g|-----------------------------------------|
d|-----------------------------------------|
a|-----------------------------------------|
e|---0-15p0-15p0-0-14p0-14p0-0-10---10-12--|
verse.....
e|-----0------0------2---|
b|-----0------1------3---|
g|-----0------0------2---|
d|-----2------2------0---|
a|-----2------3------0---|
e|-----0------0------0---|
Em C D

Brigde to chrous.....
e|------------------------------------7^---|
b|-----------------------------------------|
g|-----xx55--xx77--------------------------|
d|-----xx55--xx77--------------------------|
a|-----xx33--xx55--------------------------|
e|------------------------0h3--------------|

e|--------------------------------7^-----|
b|---------------------------------------|
g|-----xx55--x77-------------------------|
d|-----xx55--x77-------------------------|
a|-----xx33--x55------4h5----------------|
e|---------------------------------------|
Chrous...... x2
e|---------------------------------------------------------------------------
b|-------------------------------------------------------11111---------------
g|-------------------55555----77777----------------22222-------5555--7777----
d|-22222222222222----55555----77777---222222222----22222-------5555--7777----
a|-22222222222222----33333----55555---222222222----00000-------3333--5555----
e|-00000000000000---------------------000000000------------------------------
you can also play the intro through the chrous
Middle part.....
e|------------------------------------------------------------------------------------
b|---12---------12-----12-------12-------12------12-----------------------------------
g|---14^(16)--14^(16)--14^(16)--14^(16)--14^(16)-14^(16)----14b16r14p12--12--------
d|------------------------------------------------------------------------------14-
a|------------------------------------------------------------------------------------
e|------------------------------------------------------------------------------------
e|-----12------12------12--------12-12-15-12-----12-----------------------------------
b|-----15^(17)-15^(17)-15^(17)----------------15-----15 12h15p12-15--15b17------------
g|------------------------------------------------------------------------------------
d|------------------------------------------------------------------------------------
a|------------------------------------------------------------------------------------
e|------------------------------------------------------------------------------------
e|-17b19-17b19---12--15--12p15h12-----------------------------------------------------
b|-------------------------------------15--12p15h12----------------12-----------------
g|---------------------------------------------------------14-12-14--14b16r14p12------
d|----------------------------------------------------------------------------------14
a|------------------------------------------------------------------------------------
e|------------------------------------------------------------------------------------
e|-----------------------------------------xx12------12-------xx14------14------------
b|-12------12------12------12--------------xx15^(17)-15^(17)--xx17^(19)-17^(19)-------
g|-14^(16)-14^(16)-14^(16)-14^(16)----------------------------------------------------
d|------------------------------------------------------------------------------------
a|------------------------------------------------------------------------------------
e|------------------------------------------------------------------------------------
e|------------7^-
b|---------------
g|---------------
d|---------------
a|---------------
e|--0h3----------

chrous + tiny brigde part.....
e|---------------------------------------------------------------------------
b|-------------------------------------------------------11111---------------
g|-------------------55555----77777----------------22222-------5555--7777----
d|-22222222222222----55555----77777---222222222----22222-------5555--7777----
a|-22222222222222----33333----55555---222222222----00000-------3333--5555----
e|-00000000000000---------------------000000000------------------------------

you can also play the intro through the chrous
tiny brigde part.....
e|-------------------------------------------|
b|-------------------------------------------|
g|-------------------------------------------|
d|---22222222222222--------------------------|
a|---22222222222222--------------------------|
e|---00000000000000--------------------------|
..........................drum solo......then play the intro again...........
amy questions send em to: [email protected] thanks




Ваше мнение



Капча