-H-I-M-
Razorblade Kiss
song is easy if you dont mind stretching your fingers a bit
intro/solo
e:0-3-3-0-3-3-0-3-3-0-3-3-5-7-7-5-7-7
a:--------------------------------------------
d: ------------------------------------------- x2
g:--------------------------------------------
verse
e:0-0-0-0-0-0-0-0-0-0-0-0-0-0-0-0----------------------2-2-2-2-2-2-2-2-0-0-0-0-0-0-0-0-0-0-0-0-0-0-
a:-----------------------------------------5-5-5-5-5-5-5-5-----------------------------------------
d:-------------------------------------------------------------------------------------------------
g:-------------------------------------------------------------------------------------------------
u on my skin bit....
e:0-3-3-3-0-3-3-3-2-3-3-3-1-3-3-3
a:---------------------------------------
d:---------------------------------------
g:---------------------------------------
if any of this tab is wrong i will be checking it soon so it WILL be corrected




Ваше мнение



Капча