Our Diabolical Rapture Chords by Him, www.Ultimate-Guitar.Com
HIM
Album:Greatest Lovesongs Vol.666
By Paul Younger
Our Diabolical Rapture
RIFFI
|--------------------|
|--------------------|
|--------------------|
|--------------------| * 3
|--------------------|
|-8-6-6-8-6-6-3h5-3~-|
|--------------------|
|--------------------|
|--------------------|
|-------------5h7-5~-|
|--------------------|
|-8-6-6-8-6-6--------|
RIFFI
|---------------------------|
|---------------------------|
|---------------------------|
|-5-5-5-5-5-5-5-5-5-5-5-5-5-|
In our diabolikal rapture we live on and on
And death keeps knocking at our door
|-----------------------------------------------------|
|-----------------------------------------------------|
|-----------------------------------------------------|
|-----------------------------------------------------|
|-----------------------------------------------------|
|-8-6-6-8-6-6-----------------5-3-3-5-3-3-------------|
So we open the door and we die a bit more
We're in love with with death and we die on and on
Dm
Won't you close our eyes
|-----------------------------------------------------|
|-----------------------------------------------------|
|-----------------------------------------------------|
|-----------------------------------------------------|
|-----------------------------------------------------|
|-8-6-6-8-6-6------------------5-3-3-5-3-3------------|
Dm F
We'll be by your side
RIFFI
|---------------------------|
|---------------------------|
|---------------------------|
|-5-5-5-5-5-5-5-5-5-5-5-5-5-|
In your heavenly rapture we die on and on
And you keep waiting at our door
|-----------------------------------------------------|
|-----------------------------------------------------|
|-----------------------------------------------------|
|-----------------------------------------------------|
|-----------------------------------------------------|
|-8-6-6-8-6-6------------------5-3-3-5-3-3------------|
Yes - we open the door, let us die a bit more
Because we're in love with you and we die on and on
Dm
Won't you close our eyes, eyes
|-----------------------------------------------------|
|-----------------------------------------------------|
|-----------------------------------------------------|
|-----------------------------------------------------|
|-----------------------------------------------------|
|-8-6-6-8-6-6------------------5-3-3-5-3-3------------|
Dm F
We'll be by your side
A#5 G#5 C#5 D#5
Your love is the only thing I
live for in this world
Oh how I wait for the day
Your heart burns
In these heavenly flames I've
Already scorched in F5
I just want you to know I'll always be waiting
D5 C5 F5 G5
Your love is the only thing I
|--------|
|--------|
|--------|
|--------|
|--------|
D5 C5 F5 G5 |-5~---1-|
live for in this world
Oh how I wait for the day your heart burns
In these heavenly flames I've already scorched in
I just want you to know I'll always be waiting




Ваше мнение



Капча