artist:HIM
song:loves requiem (solo)
album:love metal
tabber:nick

(distorted)
e|------------------------------------------------------------------|
b|------------------------------------------------------------------|
g|------------------------------------------------------------------|
d|------------------------------------------------------------------|
a|----5/75~---5/75~--3/5--5-57/5-3-------------5/75~---42/4----|
E|-5~~--------------------------------5~~-----5~~----------------3~-|

e|------------------------------------------------------------------|
b|------------------------------------------------------------------|
g|------------------------------------------------------------------|
d|------------------------------------------------------------------|
a|----5/75~---5/75~--3/5--5-5/75-3------------5/75~---42/4-----|
E|-5~~--------------------------------5~~---1/5~~---------------3~~-|

if you want to e-mail me about this tab if it is incorrect or something like that
my address is:[email protected] ][=][-][-][Y][(HIM) rock




Ваше мнение



Капча