Piano, arranged for guitar x3
|--------|--------|--------|--------|
|----9---|---5----|--------|--------|
|--11----|--8-----|---4----|--------|
|-9------|-6------|--8-----|--------|
|7-------|4-------|-6------|--------|
|--------|--------|4-------|--------|
E C#m G#m G#m
|--------|--------|
|----9---|-----11-|
|--11----|---13---|
|-9------|-11-----|
|7-------|9-------|
|--------|--------|
E F#
(Baby join me in death)
G#m F#
We are so young
H F#
our lives have just begun
G#m F#
But already we are considering
E F#
escape from this world
G#m F#
And we´ve waited for so long
H F#
for this moment to come
G#m F#
We´re so anxious to be together
E F#
together in death
E C#m G#m
Won´t you die tonight for love
(Baby join me in death)
E C#m G#m
Won´t you die
(Baby join me in death)
E C#m G#m
Won´t you die tonight for love
(Baby join me in death)
E C#m G#m
So will you die
(Baby join me in death)
G#m F#
This world is so cruel place
H F#
and we´re here only to lose
G#m F#
So before light tiers us apart
E F#
let death bless me with you
E C#m G#m
This life ain´t worth living for
(Join me)
Corrected by KODEXX




Ваше мнение



Капча