E||---------------------------||---------------------------||
B||---------------------------||---------------------------||
G||*--6~---8--8--8--8--------*||*-------------------------*||
D||*-------------------6--8--*||*-------------------------*||

A||---------------------------||---4~---6--6--6--6---------||
E||---------------------------||--------------------4--6---||
Verse1
KEYBOARD
|--------------------------|-------------------------|-------------------------|
|--------------------------|-------------------------|-------------------------|
|*-------------------------|-------------------------|-------------------------|
|*-------------------------|-------------------------|-------------------------|
|--------------------------|-------------------------|-------------------------|
|---6----6--6--6--6--6--6--|--6----6--6--6--6--6--6--|--9----9--9--9--9--4/-6--|
|-------------------------||-------------------------|-------------------------|
|-------------------------||-------------------------|-------------------------|
|------------------------*||-------------------------|-------------------------|
|------------------------*||-------------------------|-------------------------|
|-------------------------||-------------------------|-------------------------|
|--4---4--4--4--4--4--4---||--9----9--9--9--9--9--9--|--9----9--9--9--9--9--9--|
|-------------------------|-------------------------|-------------|------------|
|-------------------------|-------------------------|-------------|------------|
|-------------------------|-------------------------|---8---------|------------|
|-------------------------|-------------------------|---8---------|------------|
|--8----8--8--8--8--------|-------------------------|---6---------|------------|
|-------------------8/-9--|--8----8--8--8--8--8--8--|-------------|------------|
Chorus1 8x
|-------------------------|----------------------||---------------------------||
|-------------------------|----------------------||---------------------------||
|----10---------------10--|--10------------------||*-------------------------*||
|----10---------------10--|--10------------------||*-------------------------*||
|----8----------------8---|--8-------------------||---4~---6--6--6--6---------||
|-------------------------|----------------------||--------------------4--6---||
Verse2
|---------------------------|-------------------------|-------------------------
|
|---------------------------|-------------------------|-------------------------
|
|*--------------------------|-------------------------|-------------------------
|
|*--------------------------|-------------------------|-------------------------
|
|---------------------------|-------------------------|-------------------------
|
|----6----6--6--6--6--6--6--|--6----6--6--6--6--6--6--|--9----9--9--9--9--4/-6--
|
|--------------------------||-------------------------|-------------------------
|
|--------------------------||-------------------------|-------------------------
|
|-------------------------*||-------------------------|-------------------------
|
|-------------------------*||-------------------------|-------------------------
|
|--------------------------||-------------------------|-------------------------
|
|--4----4--4--4--4--4--4---||--9----9--9--9--9--9--9--|--9----9--9--9--9--9--9--
|
|--------------------------|--------------------------|------------|------------
|
|--------------------------|--------------------------|------------|------------
|
|--------------------------|--------------------------|----8-------|------------
|
|--------------------------|--------------------------|----8-------|------------
|
|---8----8--8--8--8--------|--------------------------|----6-------|------------
|
|--------------------8/-9--|---8----8--8--8--8--8--8--|------------|------------
|
Chorus2 16x
|-------------------------|--------------------||---------------------------||
|-------------------------|--------------------||---------------------------||
|----10---------------10--|--10----------------||*-------------------------*||
|----10---------------10--|--10----------------||*-------------------------*||
|----8----------------8---|--8-----------------||---4~---6--6--6--6---------||
|-------------------------|--------------------||--------------------4--6---||
SOLO
ORGAN 12x Bridge
|---------------------||--------------|-----------|-------------|------------|
|---------------------||--------------|-----------|-------------|------------|
|*-------------------*||-----8--------|-----------|----10-------|------------|
|*-------------------*||-----8--------|-----------|----10-------|------------|
|---------------------||-----6--------|-----------|----8--------|------------|
|---------------------||--------------|-----------|-------------|------------|
|---------------------|--------------|--------------------------|------------|
|---------------------|--------------|--------------------------|------------|
|---8-----------------|--------------|-----10--------------10---|--10--------|
|---8-----------------|--------------|-----10--------------10---|--10--------|
|---6-----------------|--------------|-----8---------------8----|--8---------|
|---------------------|--------------|--------------------------|------------|
Chorus_End 16x
14x
|---------------------||---------------------------||---------------------------
||
|---------------------||---------------------------||---------------------------
||
|---------------------||*-------------------------*||*--6~---8--8--8--8--------*
||
|---------------------||*-------------------------*||*-------------------6--8--*
||
|---------------------||---4~---6--6--6--6---------||---------------------------
||
|----4/---15---5-----||--------------------4--6---||--------------------------
-||
|-------------|--------------|--------------|-------------------|---------------
||
|-------------|--------------|--------------|-------------------|---------------
||
|--6----------|--------------|--------------|-------------------|---------------
||
|--6----------|--6-----------|--------------|---8---------------|---------------
||
|--4----------|--6-----------|--------------|---8---------------|---------------
||
|-------------|--4-----------|--------------|---6---------------|---------------
||

SOLO
E||-----------------------|---------------------|-----------------------|
B||-----------------------|---------------------|-----------------------|
G||-----------------------|--6~--------------6--|--5~-------------------|
D||-----------------------|---------------8-----|-----------------------|
A||-----------------6/-8--|---------------------|-----------------------|
E||-----------------------|---------------------|-----------------------|
|-------------------------|-------------------|-------------------------|
|-------------------------|-------------------|-------------------------|
|-------------------------|-------------------|--6----5--5--------5--5--|
|---6/8----6--------------|-------------------|-------------6--6--------|
|-------------8--6--4/-6--|--8--6~------------|-------------------------|
|-------------------------|-------------------|-------------------------|
|-------------------------|-------------------------|-------------------|
|-------------------------|-------------------------|-------------------|
|--6----5--5--------5--5--|---------------8/10-6--6/|--8~---------------|
|-------------6--6--------|--11~--------------------|-------------------|
|-------------------------|-------------------------|-------------------|
|-------------------------|-------------------------|-------------------|
|-------------------------|-------------------------|--------------------------|
|-------------------------|-------------------------|--------------------------|
|-------------------------|-------------------------|--------------------------|
|--8----8--8--8--8--8--8--|--8----8--8--8--8--8--8--|--6/8----6----------------|
|-------------------------|-------------------------|------------8--6--4/-6--8-|
|-------------------------|-------------------------|--------------------------|
|------------------------||
|------------------------||
|------------------------||
|------------------------||
|---6~-------------------||
|------------------------||

ORGAN
E |---Bb---|--------|---G#---|---Eb---|---Bb---|--------|---G#---|---Eb---|
B |---F----|--------|---Db---|---C----|---F----|--------|---Db---|---C----|
G |---Db---|--------|---C----|---G#---|---Db---|--------|---C----|---G#---|
D |--------|--------|--------|--------|--------|--------|--------|--------|
A |--------|--------|--------|--------|--------|--------|--------|--------|
E |--------|--------|--------|--------|--------|--------|--------|--------|
E |---Bb---|--------|---G#---|---Eb---|
B |---F----|--------|---Db---|---C----|
G |---Db---|--------|---C----|---G#---|
D |--------|--------|--------|--------|
A |--------|--------|--------|--------|
E |--------|--------|--------|--------|
KEYBOARD
7x 3x
E |---Db---||--------||---Db---||---------||---F#---|-------|---C---|
B |--------||--------||--------||---------||---Db---|-------|---E---|
G |--------||*------*||--------||*-------*||---Bb---|-------|---C---|
D |--------||*------*||--------||*-------*||--------|-------|-------|
A |--------||--------||--------||---------||--------|-------|-------|
E |--------||--------||--------||---------||--------|-------|-------|
7x 7x 3x
|-------|---Db---||--------||---Db---||--------||---Db---||--------||
|-------|--------||--------||--------||--------||--------||--------||
|-------|--------||*------*||--------||*------*||--------||*------*||
|-------|--------||*------*||--------||*------*||--------||*------*||
|-------|--------||--------||--------||--------||--------||--------||
|-------|--------||--------||--------||--------||--------||--------||
7x
|---F#---|-------|---C---|-------|---Db---||--------||---Db---|
|---Db---|-------|---E---|-------|--------||--------||--------|
|---Bb---|-------|---C---|-------|--------||*------*||--------|
|--------|-------|-------|-------|--------||*------*||--------|
|--------|-------|-------|-------|--------||--------||--------|
|--------|-------|-------|-------|--------||--------||--------|
19x
|--------||---F#---|-------|---C---|-------|---F#---|-------|---C---|
|--------||---Db---|-------|---E---|-------|---Db---|-------|---E---|
|*------*||---Bb---|-------|---C---|-------|---Bb---|-------|---C---|
|*------*||--------|-------|-------|-------|--------|-------|-------|
|--------||--------|-------|-------|-------|--------|-------|-------|
|--------||--------|-------|-------|-------|--------|-------|-------|
|--------||---Db---||-------||---Db---|-------|
|--------||--------||-------||--------|-------|
|*------*||--------||*-----*||--------|-------|
|*------*||--------||*-----*||--------|-------|
|--------||--------||-------||--------|-------|
|--------||--------||-------||--------|-------|
Intro
In love and lonely
In love and lonely
Verse1
I'm not with you my baby
Just to see you cry
I'm in love with you
Not the tears in your eyes
I can't remember
The last time you smiled
Oh I know how it feels
I know what it's like
Chorus1
To be
In love and lonely
In love and lonely
Verse2
Don't know what to do my baby
It's not alright
This can't be the end
The time to say good bye
No I won't walk away that easy
After all this time
Oh you know how it feels
You know what it's like
Chorus2
To be
In love and lonely
In love and lonely
In love and lonely
In love and lonely
SOLO
Bridge
Oh you know how it feels
You know what it's like
You know how it is
But you just can't stop crying
Chorus_End
In love and lonely
In love and lonely
In love and lonely
In love and lonely
In love and lonely
In love and lonely
In love and lonely
In love and lonely




Ваше мнение



Капча