Gone with the sin LIVE (Rock Am Ring)
INTRO:
Guitar and Keyboard
|--------------------------------|
|----9-7-----------7-------------|
|-6~-----9-8---8-9--9-8--64-6---|
|------------9-----------------6~|
|--------------------------------|
|--------------------------------|
|-------------------------------------------------|
|----9-7---7------7--9-7--------------------------|
|-6~-----9----8-9--------9-8-6-4------------------|
|--------------------------------7-6-4------------|
|---------------------------------------7-6-------|
|-------------------------------------------------|
|--------------------------------------------------------|
|--------------------------------------------------------|
|-6-8-9-8---9--11--13--11--9-8-6-4-2-1-------------------|
|--------------------------------------4-2-1---1-2-1---1~|
|--------------------------------------------4-------2---|
|--------------------------------------------------------|
CHORUS
|----------------------------|--------------------------|
|------------4h5-4-----------|--------------7-----------|
|*--------6---------6--------|-----------8-----8--------|
|*-----6---------------6-----|--------9-----------9-----|
|---4---------------------4--|-----9-----------------9--|
|----------------------------|--7-----------------------|
3x
|--------------------------|---------------------------|
|--------------5--------7-|-----------9---------------|
|-----------6-----6--------|--------9--------------8--*|
|--------7-----------7-----|-----9--------------9-----*|
|-----7--------------------|--7--------------9---------|
|--5-----------------------|--------------7------------|

|---------------------------|--------------------------|
|-----------4h5-4-----------|--------------7-----------|
|--------6---------6--------|-----------8-----8--------|
|-----6---------------6-----|--------9-----------9-----|
|--4---------------------4--|-----9-----------------9--|
|---------------------------|--7-----------------------|

|------5--------------|------------------||
|------5--------------|------------------||
|------6--------------|------------------||
|------7--------------|------------------||
|------7--------------|------------------||
|------5--------------|------------------||


SOLO : ???

CHORUS 2
|----------------------------|--------------------------|
|------------6h7-6-----------|--------------9-----------|
|*--------8---------8--------|----------10----10--------|
|*-----8---------------8-----|-------11----------11-----|
|---6---------------------6--|----11----------------11--|
|----------------------------|--9-----------------------|
3x
|--------------------------|---------------------------|
|-------------------------|-----------11--------------|
|-----------8--------------|--------11-------------10-*|
|--------9------9----------|-----11-------------11----*|
|-----9------------9-------|---9-------------11--------|
|--7------------------7----|--------------9------------|

|----------------------------|--------------------------|
|------------6h7-6-----------|--------------9-----------|
|*--------8---------8--------|----------10----10--------|
|*-----8---------------8-----|-------11----------11-----|
|---6---------------------6--|----11----------------11--|
|----------------------------|--9-----------------------|

|------7--------------|------------------||
|------7--------------|------------------||
|------8--------------|------------------||
|------9--------------|------------------||
|------9--------------|------------------||
|------7--------------|------------------||
song from him/composed by ville valo
tabs by [email protected]




Ваше мнение



Капча