HIM - Fortress of tears, from Love Metal
intro (clean guitar)
e-----------------------------------------------------
b-----------------------------------------------------
g-----------------------------------------------------
d--6/7----6--6--64-----------------------------------
a--7/9----7--7--75---4-b-2---------------------------
e----------------------------------------------------- X2
part 1 (distortion)
e-----------------------------------------------------
b-----------------------------------------------------
g-----------------------------------------------------
d--7/9--9-9-9/109-9-9---7-x-7-x-75------------------
a--7/9--9-9-9/109-9-9---7-x-7-x-75------------------
e--5/7--7-7-7/-97-7-7---5-x-5-x-53---3-2-0---------- x4
(second play though ending - distortion)
e-----------------------------------------------------
b-----------------------------------------------------
g-----------------------------------------------------
d-----------------------------------------------------
a-----------------------------------------------------
e--/12-v----------------------------------------------
Pre-chorus
e-----------------------------------------------------
b-----------------------------------------------------
g-----------------------------------------------------
d--7--7---9-------------------------------------------
a--7--7---9-------------------------------------------
e--5--5---7-------------------------------------------
chorus
e-----------------------------------------------------
b-----------------------------------------------------
g---7-7-7-7-7-7-7-7--4-4-4-4-4-4-4-4------------------
d---7-7-7-7-7-7-7-7--4-4-4-4-4-4-4-4--5-5-5-5-5-5-5-5-
a---5-5-5-5-5-5-5-5--2-2-2-2-2-2-2-2--5-5-5-5-5-5-5-5-
e-------------------------------------3-3-3-3-3-3-3-3-
e-----------------------------------------------------
b-----------------------------------------------------
g---7--7--7-------------------------------------------
d---7--7--7---7---------------------------------------
a---5--5--5---7---------------------------------------
e-------------5---------------------------------------
part 1 x2
pre-chorus
chorus
part 1
Solo
e-----------------------------------------------------
b-----------------------------------------------------
g----------------------------------------9b--9b-9b--9b
d--------------9*-7------------7-9v-------------------
a---------7-9--------9v---7-9-------------------------
e--7-/-9----------------------------------------------
e-----------------------------------------------------
b-----------------------------------------------------
g-----7b--7b--7b--7b----------------------------------
d--11-----------------9-------------------------------
a-----------------------------------------------------
e-----------------------------------------------------
I'll do the rest of the solo when I can. If you have any problems,
e-mail me at [email protected]




Ваше мнение



Капча