HIM - Bury Me Deep Inside Your Heart
Tabbed By: Dylan Givens
EMail: [email protected]
Composed by: Ville Valo
Tabulated by: The Duke & Luke “Lazy Sky” Vai
Only SINTH ---->

E||--------|-------|-------|-------|-------|------|------|-------|
B||--------|-------|-------|-------|-------|------|------|-------|
G||--------|-------|-------|-------|-------|------|------|-------|
D||--------|-------|-------|-------|-------|------|------|-------|
A||--------|-------|-------|-------|-------|------|------|-------|
E||--------|-------|-------|-------|-------|------|------|-------|
SINTH ---->
PIANO 1
E||--------|-------|-------|-------|-------|------|--------------|
B||--------|-------|-------|-------|-------|------|--------------|
G||--------|-------|-------|-------|-------|------|--------------|
D||--------|-------|-------|-------|-------|------|---6---6---7--|
A||--------|-------|-------|-------|-------|------|---7---7---7--|
E||--------|-------|-------|-------|-------|------|--------------|

SINTH RIT PIANO RIT
|----------------------||------------------------|
|----------------------||------------------------|
|----------------------||*-----------------------|
|--7-------------------||*--4----4----4----4--4--|
|--7----7----7----9----||---2----2----2----2--2--|
|-------7----7---------||------------------------|

|-------------------|--------------------|-----------------------|
|-------------------|--------------------|-----------------------|
|-------------------|--------------------|-----------------------|
|--4---6---6---7----|--7---7---7---7--7--|--7----9----9----11----|
|--2---4---4---5----|--5---5---5---5--5--|--5----7----7----9-----|
|-------------------|--------------------|-----------------------|

|------------------------|--------------------|-------------------|
|------------------------|--------------------|-------------------|
|------------------------|--------------------|-------------------|
|--11--11---11---11--11--|--11--11---11---11--|--9--9---9---9--9--|
|--9---9----9----9---9---|--9---9----9----9---|--7--7---7---7--7--|
|------------------------|--------------------|-------------------|
Verse1
SINTH 2
|-----------------------||----|----|----|----|----|----|----|-----|
|-----------------------||----|----|----|----|----|----|----|-----|
|----------------------*||*---|----|----|----|----|----|----|----*|
|--9----9----9----9----*||*---|----|----|----|----|----|----|----*|
|--7----7----7----7-----||----|----|----|----|----|----|----|-----|
|-----------------------||----|----|----|----|----|----|----|-----|
Chorus
|---|---|---|---|---|---|-----|-----|-----|-----|--------------|
|---|---|---|---|---|---|-----|-----|-----|-----|--------------|
|---|---|---|---|---|---|-----|-----|-----|-----|--------------|
|---|---|---|---|---|---|-----|-----|-----|-----|--6----6---7--|
|---|---|---|---|---|---|-----|-----|-----|-----|--7----7---7--|
|---|---|---|---|---|---|-----|-----|-----|-----|--------------|
SINTH RIT PIANO RIT
|----------------------||------------------------|
|----------------------||------------------------|
|----------------------||*-----------------------|
|--7-------------------||*--4----4----4----4--4--|
|--7----7----7----9----||---2----2----2----2--2--|
|-------7----7---------||------------------------|

|-------------------|--------------------|-----------------------|
|-------------------|--------------------|-----------------------|
|-------------------|--------------------|-----------------------|
|--4---6---6---7----|--7---7---7---7--7--|--7----9----9----11----|
|--2---4---4---5----|--5---5---5---5--5--|--5----7----7----9-----|
|-------------------|--------------------|-----------------------|

|------------------------|--------------------|-------------------|
|------------------------|--------------------|-------------------|
|------------------------|--------------------|-------------------|
|--11--11---11---11--11--|--11--11---11---11--|--9--9---9---9--9--|
|--9---9----9----9---9---|--9---9----9----9---|--7--7---7---7--7--|
|------------------------|--------------------|-------------------|
Verse2
SINTH 2
|-----------------------||----|----|----|----|----|----|----|-----|
|-----------------------||----|----|----|----|----|----|----|-----|
|----------------------*||*---|----|----|----|----|----|----|----*|
|--9----9----9----9----*||*---|----|----|----|----|----|----|----*|
|--7----7----7----7-----||----|----|----|----|----|----|----|-----|
|-----------------------||----|----|----|----|----|----|----|-----|
Chorus
|---|---|---|---|---|---|-----|-----|-----|-----|--------------|
|---|---|---|---|---|---|-----|-----|-----|-----|--------------|
|---|---|---|---|---|---|-----|-----|-----|-----|--------------|
|---|---|---|---|---|---|-----|-----|-----|-----|--6----6---7--|
|---|---|---|---|---|---|-----|-----|-----|-----|--7----7---7--|
|---|---|---|---|---|---|-----|-----|-----|-----|--------------|
SINTH RIT PIANO RIT
|----------------------||------------------------|
|----------------------||------------------------|
|----------------------||*-----------------------|
|--7-------------------||*--4----4----4----4--4--|
|--7----7----7----9----||---2----2----2----2--2--|
|-------7----7---------||------------------------|

|-------------------|--------------------|-----------------------|
|-------------------|--------------------|-----------------------|
|-------------------|--------------------|-----------------------|
|--4---6---6---7----|--7---7---7---7--7--|--7----9----9----11----|
|--2---4---4---5----|--5---5---5---5--5--|--5----7----7----9-----|
|-------------------|--------------------|-----------------------|

|------------------------|--------------------|-------------------|
|------------------------|--------------------|-------------------|
|------------------------|--------------------|-------------------|
|--11--11---11---11--11--|--11--11---11---11--|--9--9---9---9--9--|
|--9---9----9----9---9---|--9---9----9----9---|--7--7---7---7--7--|
|------------------------|--------------------|-------------------|
x3 SINTH RIT PIANO RIT
|-----------------------||-----------------------------|
|-----------------------||-----------------------------|
|----------------------*||-----------------------------|
|--9----9----9----9----*||----4----4-----4-----4----4--|
|--7----7----7----7-----||----2----2-----2-----2----2--|
|-----------------------||-----------------------------|
|-------------------|--------------------|-----------------------|
|-------------------|--------------------|-----------------------|
|-------------------|--------------------|-----------------------|
|--4---6---6---7----|--7---7---7---7--7--|--7----9----9----11----|
|--2---4---4---5----|--5---5---5---5--5--|--5----7----7----9-----|
|-------------------|--------------------|-----------------------|
Bridge
BRIDGE
|-----|-----|----|----|----|----|----|----|
|-----|-----|----|----|----|----|----|----|
|*----|-----|----|----|----|----|----|---*|
|*----|-----|----|----|----|----|----|---*|
|-----|-----|----|----|----|----|----|----|
|-----|-----|----|----|----|----|----|----|
Chorus
SINTH RIT PIANO RIT
|----------|----------|----------|------||------------------------|
|----------|----------|----------|------||------------------------|
|----------|----------|----------|------||*-----------------------|
|--7-7-7-7-|--7-7-7-7-|--7-7-7---|------||*--4----4----4----4--4--|
|--5-5-5-5-|--5-5-5-5-|--5-5-5---|------||---2----2----2----2--2--|
|----------|----------|----------|------||------------------------|

|-------------------|--------------------|-----------------------|
|-------------------|--------------------|-----------------------|
|-------------------|--------------------|-----------------------|
|--4---6---6---7----|--7---7---7---7--7--|--7----9----9----11----|
|--2---4---4---5----|--5---5---5---5--5--|--5----7----7----9-----|
|-------------------|--------------------|-----------------------|

|------------------------|--------------------|-------------------|
|------------------------|--------------------|-------------------|
|------------------------|--------------------|-------------------|
|--11--11---11---11--11--|--11--11---11---11--|--9--9---9---9--9--|
|--9---9----9----9---9---|--9---9----9----9---|--7--7---7---7--7--|
|------------------------|--------------------|-------------------|
x3 SINTH RIT PIANO RIT
|-----------------------||-----------------------------|
|-----------------------||-----------------------------|
|----------------------*||-----------------------------|
|--9----9----9----9----*||----4----4-----4-----4----4--|
|--7----7----7----7-----||----2----2-----2-----2----2--|
|-----------------------||-----------------------------|


|-------------------|--------------------|-----------------------|
|-------------------|--------------------|-----------------------|
|-------------------|--------------------|-----------------------|
|--4---6---6---7----|--7---7---7---7--7--|--7----9----9----11----|
|--2---4---4---5----|--5---5---5---5--5--|--5----7----7----9-----|
|-------------------|--------------------|-----------------------|

PIANO 1
E |-7-9-|------|-5-7-|------|-4-5-|------|--4-0--|
B |-----|------|-----|------|-----|------|-------|
G |-----|------|-----|------|-----|------|-------|
D |-----|------|-----|------|-----|------|-------|
A |-----|------|-----|------|-----|------|-------|
E |-----|------|-----|------|-----|------|-------|
PIANO RIT
|-7-|-9-|-5-|-7-|-4-|-5-|-4-|-0-|-7-|-9-|-5-|-7-|-4-|-5-|-4-|-0-|
|---|---|---|---|---|---|---|---|---|---|---|---|---|---|---|---|
|---|---|---|---|---|---|---|---|---|---|---|---|---|---|---|---|
|---|---|---|---|---|---|---|---|---|---|---|---|---|---|---|---|
|---|---|---|---|---|---|---|---|---|---|---|---|---|---|---|---|
|---|---|---|---|---|---|---|---|---|---|---|---|---|---|---|---|
SINTH
E |---------|
B |---------|
G |---------|
D |---------|
A |---2-----|
E |---------|
SINTH RIT
E|---|------|---|------|---|------|---|------|
B|---|------|---|------|---|------|---|------|
G|---|------|---|------|---|------|---|------|
D|---|------|-0-|------|-4-|------|-2-|------|
A|-2-|------|---|------|---|------|---|------|
E|---|------|---|------|---|------|---|------|
SINTH 2
E|------|------|---|------|---|------|---|----|
B|------|------|---|------|---|------|---|----|
G|*-----|------|-1-|------|---|------|---|---*|
D|*--4--|------|-0-|------|-2-|------|-2-|---*|
A|---5--|------|---|------|-0-|------|---|----|
E|------|------|---|------|---|------|-4-|----|
|---|-2-|---|-4-|---|-5-|-----|--4--|----|-----|-----|-----|
|---|---|---|---|---|---|-----|-----|----|-----|-----|-----|
|---|---|-1-|---|---|---|-----|-----|----|-----|-----|--1--|
|-4-|---|-0-|---|-2-|---|--2--|-----|----|--4--|-----|--0--|
|-5-|---|---|---|-0-|---|-----|-----|----|--5--|-----|-----|
|---|---|---|---|---|---|--4--|-----|----|-----|-----|-----|
BRIDGE
E|---|------|---|------|---|------|---|
B|---|------|---|------|---|------|---|
G|---|------|-1-|------|-2-|------|-1-|
D|-4-|------|-2-|------|-0-|------|-2-|
A|---|------|---|------|---|------|---|
E|---|------|---|------|---|------|---|




Ваше мнение



Капча