intro
normal tuning

clean
e---------------------------------------
b8p0--5p0--7p0--3p0--3/5-8p0--5p0--7p0--
g---0----0----0----0--------0----0----0-
d---------------------------------------
a---------------------------------------
e---------------------------------------

main riff - distortion
e------------------------------
b------------------------------
g------------------------------
d--------2222227777777555555555
a--------2222225555555333335555
e2h3-2~~-0000005555555333333333

interlude riff - distortion
e---------------------------------------
b---------------------------------------
g---------------------------------222-5/
d---------------------------------222-5/
a---------------------------------000-3/
e2h3-2-00-2h3-2-00-2h3-2-00-2h3-2-------




Ваше мнение



Капча