e: Sat, 23 May 1998 11:08:19 -0600
From: TOMAS VALENZUELA
Subject: h/heroes_del_silencio/parasiempre.tab
PARASIEMPRE
ENJOY IT
TRANSCRIPTION AND TABED BY TOMAS VALENZUELA
note it maybe some mistakes so if you find one or think i will sound
bether send me it please
===========
guitar 1
e----------------------------------------------------------------------------------------------
b------------------------------------------------------2--------------------------------------
g------------------------------------------------------2--------------------------------------
d------------------------------------------------------2--------------------------------------
a------------------------------------------------------0--------------------------------------
E--0-3p0-3p0-3-0-3p0-3p0--3-0-3p0-3p0-3p0h2h3----------------------------------------
guitar 2
e------------------------------------------------------5--------------------------------------
b--5-8p5-8p5-8-5-8p5-8p5--8p5-8p5-8p5-8p5h7h8---------------------------------------
g----------------------------------------------------------------------------------------------
d---------------------------------------------------------------------------------------------
a----------------------------------------------------------------------------------------------
E---------------------------------------------------------------------------------------------
Em B
verso:
C D Em C
no me tienes que impresionar ni que seguir la corriente
F G E C D Em B
voy a quedarme aqui en la orilla del presente..
C D Em C
dуnde el hombre se asfixia, escribe el testamento en chile negro
F G E C D
el suplicio es estar contigo eres la alquimia de mi veneno
puente:
Em C
La derrota no es una acciуn
D
y no hay excusas
here they put some penthatonics in the low 3 sstrings between the 12 and
15 fret
Em C D
parasiempre me parece mucho tiempo...
coro: (es estar rasgueando Em varias veces y B)
INTRO RIF
parasiempre, no hay nada parasiempre, no
parasiempre, no hay nada parasiempre

this is before" al influencia de la ira" play this in natural armonics
e----------------------19--------
b---------------19-19----19---------------------
g--------19-19---------------19--------------------------------------------------------------
d-19-19-------------------------19-19-------------------------------------------------------
a----------------------------------------------------------------------------------------------
E---------------------------------------------------------------------------------------------
C D Em
F G Em
la influencia de la ira y los impulsos de la lengua no tengo toda la
vida aun hay cajas con sorpresas
the solo is on an E penthatonic scale you have to intercalete with
thise chords E D E C (at this point enters the voice)
C D Em C D
vendrй con la boca amarga y el corazуn bien jodido...
Parasiempre, no hay nada parasiempre, no
parasiempre, no hay nada parasiempre
parasiempre, no hay nada parasiempre, no
parasiempre, no hay nada parasiempre
OUTRO RIF
e--5------------------------------------------------------------------
b--6------------------------------------5-5-6br-5-------------------
g--7--5-5-5-5h7-5-5h7-5-7-7br-5-7-7-----------7-5-5h77-7------
d--7-----------------------------------------------------------------
a--5---------------------------------------------------------------
E---------------------------------------------------------
chispa adecuada
e-5--5-5--5-6-5--5-------------------------------]-------
b-6------8------8---8-6-8-6-5-6-5---------------]-------
g-7-----------------------------------7-7-5-7-7---]------
d-7------------------------------------------------]-------
a-5------------------------------------------------]3-3s5-5
E--------------------------------------------------]-------




Ваше мнение



Капча