From: Francisco Javier Alcaraz
Date: Friday, 26 January 2001 17:57:17
Subject: Heroes del silencio "Hйroe de Leyenda"
Heroes del Silencio - Hйroe de Leyenda --------------------------------
From the album El Espнritu Del Vino
Transcription by Francisco Javier Alcaraz

Chords used:
-----------
Gm D# D Bm Em A F#m G Am F E
E|---3------3------2-----|-----2-----7-----0-----2-----3-----|-----0-----1-----0---|
B|---3------4------3-----|-----3-----8-----2-----2-----3-----|-----1-----1-----0---|
G|---3------3------2-----|-----4-----9-----2-----3-----0-----|-----2-----2-----1---|
D|---5------5------------|-----4-----9-----2-----4-----0-----|-----2-----3-----2---|
A|---5------6------------|-----2-----7-----0-----4-----2-----|-----0-----3-----2---|
E|---3------3------------|-----2-----7-----------2-----3-----|-----0-----1-----0---|

Intro:
E|---------------------------------------------------------------------------|
B|---------------------------------------4---4-----4-------------------------|
G|--3---3---3--3--3-3-3\2------------------------------2---2---2--2-2-2/3-2--|
D|----5---5------------------5-3---5---5-------5---------4---4---------------|
A|-----------------------------------6-----------6---------------------------|
E|---------------------------------------------------------------------------|
E|-------------3-------------------|
B|-----------3----3-3/4\3---4---3--|
G|---------3--------------3---3----|
D|--5-3--5-------------------------|
A|---------------------------------|
E|---------------------------------|

Gm D#
Siempre en la oscuridad
D Gm
La voz no tiene sentido.
Gm D#
El silencio lo es todo.
D Gm
Hйroe en su propio olvido.

Bm Em
En sus ojos apagados
Bm Em
Hay un eterno castigo,
A
El hйroe de leyenda
F#m
Pertenece al sueсo
G
De un destino.
Am F E
E|---------------------------------------------------------------------------|
B|---------------------------------------6---6-----6-------------------------|
G|--5---5---5--5--5-5-5\4------------------------------4---4---4--4-4-4/5-4--|
D|----7---7------------------7-5---7---7-------7---------6---6---------------|
A|-----------------------------------8-----------8---------------------------|
E|---------------------------------------------------------------------------|
E|-------------5-------------------|
B|-----------5----5-5/6\5---6---5--|
G|---------5--------------5---5----|
D|--7-5--7-------------------------|
A|---------------------------------|
E|---------------------------------|
Am F
Encerrado en el tiempo
E Am
Ha perdido el valor
Am F
Para escapar de su celda
E Am
El hйroe sin ilusiуn.

Bm Em
En sus ojos apagados
Bm Em
Hay un eterno castigo,
A
El hйroe de leyenda
F#m
Pertenece al sueсo
G
De un destino.
Solo: (Am F E)
E|----------------------------------------------------------------------------------------|
B|------------------------------------------------------------------------9-10/12-10-9----|
G|--5-5-5-7-5/7\5-----5-5-5-7-5/7\5---------------------10-9/10\9-7----9---------------9--|
D|----------------9-7---------------9-------7-7-7-10-10-------------10--------------------|
A|------------------------------------10--8-----------------------------------------------|
E|----------------------------------------------------------------------------------------|
E|--10-8-7-8-7/8\7----------------------8--10-8/10\8----8------------10-8/10\8----10-8/10\8-----|
B|-----------------10-9-10---10-10-10--10------------10---10--8---10-----------10-----------10--|
G|--------------------------------------9-----------------------9-------------------------------|
D|----------------------------------------------------------------------------------------------|
A|----------------------------------------------------------------------------------------------|
E|----------------------------------------------------------------------------------------------|
E|--17---------15--------15--13-12/13\12-10--------------13--12/13\12--10----------|
B|-----13---------13----------------------------13--10---------------------13--10--|
G|---------14---------14-----------------------------------------------------------|
D|---------------------------------------------------------------------------------|
A|---------------------------------------------------------------------------------|
E|---------------------------------------------------------------------------------|
E|--------------------------------------------------------------------------------|
B|--10--9/10\9------------10--9/10\9---9------------------------------------------|
G|-------------9---------------------9---9--5--------------5-----------------5----|
D|---------------10--7------------------------7--7--7--5/7---7--7--7--7--5/7---7--|
A|--------------------------------------------------------------------------------|
E|--------------------------------------------------------------------------------|

Bm Em
En sus ojos apagados
Bm Em
Hay un eterno castigo,
A
El hйroe de leyenda
F#m
Pertenece al sueсo
G
De un destino.

Bm Em
En sus ojos apagados
Bm Em
Hay un eterno castigo,
A
El hйroe de leyenda
F#m
Pertenece al sueсo
G
De un destino.
End:
E|---------------------------------------------------------------------------|
B|---------------------------------------6---6-----6-------------------------|
G|--5---5---5--5--5-5-5\4------------------------------4---4---4--4-4-4/5-4--|
D|----7---7------------------7-5---7---7-------7---------6---6---------------|
A|-----------------------------------8-----------8---------------------------|
E|---------------------------------------------------------------------------|
E|-------------5-------------------|
B|-----------5----5-5/6\5---6---5--|
G|---------5--------------5---5----|
D|--7-5--7-------------------------|
A|---------------------------------|
E|---------------------------------|
E|-------------------------------------------------------------------|
B|---------------------------------------6---6-----6-----------------|
G|--5---5---5--5--5-5-5\4------------------------------4---4---4--4--|
D|----7---7------------------7-5---7---7-------7---------6---6-------|
A|-----------------------------------8-----------8-------------------|
E|-------------------------------------------------------------------|
E|--7-7/8\7-5----5---5---5---5----------7-8-7-8-7-5--|
B|------------8----5---5---------8---6---------------|
G|-----------------------------7---5----4-5-4/5\4-2--|
D|---------------------------------------------------|
A|---------------------------------------------------|
E|---------------------------------------------------|

that is it, if there is any suggestions or corrections, questions,
requests, or anything else, just e-mail me ([email protected])
(c)2001 by Francisco Alcaraz
----------------------------------------------
Le dedico esta cancion a un primo de Mexico,
que sin su ayuda e inspiracion no hubiera sido SPECIAL
posible para mi poder hacer este trabajo THANKS
Gracias donde quiera que estes ROBERTO J.G.P.
----------------------------------------------




Ваше мнение



Капча