-------------------------------------------------------------------------------
Entre Dos Tierras - Heroes Del Silencio
-------------------------------------------------------------------------------
Tabbed by:Lirikal
Email:[email protected]
Tuning:EADGBe
INTRO:
Echo (delay = 40, decay = 4)
Bm G Bm A Bm
e|-2------2-|----|-2------3-|----|-2------2-|----|-2------5-|----|-2--2--2---2-|
B|-3------3-|----|-3------3-|----|-3------3-|----|-3------5-|----|-3--3--3---3-|
G|-4------4-|----|-4------0-|----|-4------4-|----|-4------2-|----|-4--4--4---4-|
D|-4------4-|----|-4------0-|----|-4------4-|----|-4------2-|----|-4--4--4---4-|
A|----------|----|----------|----|----------|----|----------|----|-------------|
E|----------|----|----------|----|----------|----|----------|----|-------------|
G Bm
e|---2--2--2----|-2--2--2---3-|---3--3--3--3-|-2--2--2---2-|---2--2--2----|
B|---3--3--3----|-3--3--3---3-|---3--3--3--3-|-3--3--3---3-|---3--3--3----|
G|---4--4--4----|-4--4--4---0-|---0--0--0--0-|-4--4--4---4-|---4--4--4----|
D|---4--4--4----|-4--4--4---0-|---0--0--0--0-|-4--4--4---4-|---4--4--4----|
A|--------------|-------------|--------------|-------------|--------------|
E|--------------|-------------|--------------|-------------|--------------|
A5
e|-2--2--2--X-X-|-5-5-5-5-5-5-5-5-|
B|-3--3--3--X-X-|-5-5-5-5-5-5-5-5-|
G|-4--4--4--X-X-|-2-2-2-2-2-2-2-2-|
D|-4--4--4--X-X-|-----------------|
A|--------------|-----------------|
E|--------------|-----------------|
VERSE:
__________________
|1.
e|-----------------|----------------|----------------|-----------------|
B|----------3------|---------5------|---------5------|---------3-------|
G|*-----4------4---|-----2------2---|-----2------2---|-----0------0---*|
D|*---4---4------4-|---4---4------4-|---2---2------2-|---0---0------0-*|
A|-----------------|----------------|----------------|-----------------|
E|-----------------|----------------|----------------|-----------------|
___________________
|2.
e|-----2---2---2---|----------------|-----2---------|----------------|
B|-----3-----------|-----3----3---3-|---2------2----|-----5----5-----|
G|---0-------------|---4----4---4---|-2------2----2-|---2------------|
D|-----------------|-4--------------|---------------|-2------2---2---|
A|-----------------|----------------|---------------|----------------|
E|-----------------|----------------|---------------|----------------|
e|-----2-----2-----|-----------------|-----2-----------|----------------|
B|-----3---3---3---|-----3-----3-----|---2-------2-----|-----5----5---5-|
G|---0-------------|---4-----4-----4-|-2-------------2-|---2------------|
D|-0---------------|-4---------------|-----------------|-2------2-------|
A|-----------------|-----------------|-----------------|----------------|
E|-----------------|-----------------|-----------------|----------------|
e|---2--2-3-2-----|-----------------|---------2-----0-|-----------------|
B|---3--------3---|-----3-----3-----|-----5-----5-----|-----5-----5-----|
G|----------------|---4-----4-----4-|---2-------------|---2-------------|
D|-0--------------|-4---------------|-4---------------|-2-------2---2---|
A|----------------|-----------------|-----------------|-----------------|
E|----------------|-----------------|-----------------|-----------------|
e|---2---2---2-2---|-----------------|-----2---5-2-----|---------------0-|
B|---3-------3-----|-----3-----3-----|---2-------------|-----5-----5-----|
G|-0---0-----------|---4-----4-----4-|-2---------------|---2-----2-------|
D|-----------------|-4---------------|-----------------|-2---------------|
A|-----------------|-----------------|-----------------|-----------------|
E|-----------------|-----------------|-----------------|-----------------|
e|-----------------|-----------------|-----------------|-----------------|
B|---3-3-3-3-3-3-3-|---3---3---3---3-|---5---5---5---5-|---5---5---5---5-|
G|-----------------|-4---4---4---4---|-----------------|-----------------|
D|-0---------------|-----------------|-4---4---4---4---|-2---2---2---2---|
A|-----------------|-----------------|-----------------|-----------------|
E|-----------------|-----------------|-----------------|-----------------|
e|---2---2---2-2---|-----------------|---------2-------|-----0-------0---|
B|-----------------|---3-3-3---3-3---|-----5-----5-----|---5---5---5---5-|
G|-0---0---0-------|---------------4-|---2-----------2-|-----------------|
D|-----------------|-4-------4-------|-4---------------|-2-------2-------|
A|-----------------|-----------------|-----------------|-----------------|
E|-----------------|-----------------|-----------------|-----------------|
e|---3---3---3---3-|
B|-----------------|
G|-0---0---0---0---|
D|-----------------|
A|-----------------|
E|-----------------|
CHORUS:
_____________________
|1.
Bm D G

e|--2---2---2-2-2-2-|-----2---2-2-----|-2---2---2-2-2-3-|-----3---3-2--------|
B|--3---3---3-3-3-3-|-----3---3-3-----|-3---3---3-3-3-3-|-----3-------3------|
G|*-4---4---4-4-4-4-|-----4---4-4-----|-2---2---2-2-2-0-|-----0---------4---*|
D|*-4---4---4-4-4-4-|-----4---4-4-----|-0---0---0-0-0-0-|-----0-------------*|
A|------------------|-----------------|-----------------|--------------------|
E|------------------|-----------------|-----------------|--------------------|
____________________
|2.
e|-----3---3-3-3-3---|
B|-----3---3-3-3-3---|
G|-----0---0-0-0-0---|
D|-----0---0-0-0-0---|
A|-------------------|
E|-------------------|
INTRO:
_____________________________________
|1.
Bm G
e|--2---2---2-----2-|---2---2-2---2---|-2---2---2-----3-|-------3---3-3-3--|
B|--3---3---3-----3-|---3---3-3---3---|-3---3---3-----3-|-------3---3-3-3--|
G|*-4---4---4-----4-|---4---4-4---4---|-4---4---4-----0-|-------0---0-0-0-*|
D|*-4---4---4-----4-|---4---4-4---4---|-4---4---4-----0-|-------0---0-0-0-*|
A|------------------|-----------------|-----------------|------------------|
E|------------------|-----------------|-----------------|------------------|
____________________________________
|2.
A5

e|-2---2---2-----5-|---5-5-5-5-5-5-5-|
B|-3---3---3-----5-|---5-5-5-5-5-5-5-|
G|-4---4---4-----2-|---2-2-2-2-2-2-2-|
D|-4---4---4-------|-----------------|
A|-----------------|-----------------|
E|-----------------|-----------------|
VERSE:
e|-----------------|-----------------|-----------------|-----------------|
B|----------3------|----------5------|----------5------|----------3------|
G|------4------4---|------2------2---|------2------2---|------0------0---|
D|----4---4------4-|----4---4------4-|----2---2------2-|----0---0------0-|
A|-----------------|-----------------|-----------------|-----------------|
E|-----------------|-----------------|-----------------|-----------------|
e|-----------------|---------2-------|---------5-------|-----2-----2-----|
B|-----3-----3---0-|-----5-----5-----|-----5-----5-----|---3-3---3---3---|
G|---4-----4---4---|---2---2---------|---2---2---------|-0---------------|
D|-4---------------|-4---------------|-2---------------|-----------------|
A|-----------------|-----------------|-----------------|-----------------|
E|-----------------|-----------------|-----------------|-----------------|
e|-----------------|-----2---------0-|-------0-------0-|---2-----2-2-----|
B|---3---3---3-----|---5---5---5-----|-----5-----5-----|---3---3---3-3---|
G|-----4---4-----4-|-2-------2-------|---2-------------|-0---------------|
D|-4---------------|-----------------|-2---------------|-----------------|
A|-----------------|-----------------|-----------------|-----------------|
E|-----------------|-----------------|-----------------|-----------------|
e|-----------------|-----2---5-2-----|---------------0-|-----------------|
B|-----3-----3-----|---2-------------|-----5-----5-----|---3---3---3---2-|
G|---4-----4-----4-|-2---------------|---2-------------|-0---0---0---0---|
D|-4---------------|-----------------|-2-------2-------|-----------------|
A|-----------------|-----------------|-----------------|-----------------|
E|-----------------|-----------------|-----------------|-----------------|
CHORUS:
______________________
|1.
Bm D G

e|--2---2---2-2-2-2-|-----2---2-2-----|-2---2---2-2-2-3-|-----3---3-2--------|
B|--3---3---3-3-3-3-|-----3---3-3-----|-3---3---3-3-3-3-|-----3-------3------|
G|*-4---4---4-4-4-4-|-----4---4-4-----|-2---2---2-2-2-0-|-----0---------4---*|
D|*-4---4---4-4-4-4-|-----4---4-4-----|-0---0---0-0-0-0-|-----0-------------*|
A|------------------|-----------------|-----------------|--------------------|
E|------------------|-----------------|-----------------|--------------------|
__________________
|2.
e|-----3---3-3-3---|
B|-----3---3-3-3---|
G|-----0---0-0-0---|
D|-----0---0-0-0---|
A|-----------------|
E|-----------------|
BRIDGE:
e|---------------------|-----------------|---------6---6---|---------6---6---|
B|-8-6-------------6---|-4---4---4---4---|---3-------3---3-|---3-------3---3-|
G|-----10----10------7-|---8---5---5-----|-----3-----------|-----3-----------|
D|--------10----10-----|-----------------|-5---------------|-5-----5---------|
A|---------------------|-----------------|-----------------|-----------------|
E|---------------------|-----------------|-----------------|-----------------|
e|---------3-------|---------3-------|-3-------3-------|---------3-------|
B|---4-------4-----|---4-------4-----|---3-------3-----|---3-------3-----|
G|-----5-------5---|-----5-------5---|-----3-------3---|-----3-------3---|
D|-------5-------5-|-------5-------5-|-------5-------5-|-------5---------|
A|-----------------|-----------------|-----------------|-----------------|
E|-----------------|-----------------|-----------------|-----------------|
e|---------------------|-------------6---|---------6---6---|---------6---6---|
B|-8-6-------------6---|---4-----4-------|---3-------3---3-|---3-------3---3-|
G|-----10----10--------|-----5-----5-----|-----3-----------|-----3-----------|
D|--------10----10-----|-------5---------|-5-----5---------|-5-----5---------|
A|---------------------|-----------------|-----------------|-----------------|
E|---------------------|-----------------|-----------------|-----------------|
x3
e|-----------------|---------3-------|--3---3---3-----3-|---3---3---3-----|
B|---4-------4-----|---4-------4-----|--3---3---3-----3-|---3---3---3-----|
G|-----5-------5---|-----5-------5---|*-0---0---0-----0-|---0---0---0----*|
D|-5-----5-------5-|-5-----5---------|*-----------------|----------------*|
A|-----------------|-----------------|------------------|-----------------|
E|-----------------|-----------------|------------------|-----------------|
SOLO:
(distorsion)
e|-----------------|-----------------|-------------3-2h3-|-2p0--------------|
B|---------3-------|---------5-------|---------5---------|--------3---------|
G|-----4-------4---|-----2-------2---|-----2-------------|----4-2---4-p-2-4-|
D|---4---4-------4-|---4---4-------4-|---2---2-----------|------------------|
A|-----------------|-----------------|-------------------|------------------|
E|-----------------|-----------------|-------------------|------------------|
A.H.12
e|-----------------|--------------------|-----------------|-----------------|
B|---------3-----3-|-5-5b(7)-5-3-+5-----|---------5---3p2-|-3-3p2-----------|
G|-----4-------4---|--------------------|-----2-----------|------4----------|
D|---4---4---------|--------------------|---2---2---------|--------4--------|
A|-----------------|--------------------|-----------------|-----------------|
E|-----------------|--------------------|-----------------|-----------------|
e|-----------------|-----------------|-----------------|-----------------|
B|-----------------|-----------------|-----------------|-----------------|
G|-----------------|-----------------|-----------------|-----------------|
D|-----------------|-----------------|-----------------|-----------------|
A|-2-2-2-2-2-2-2-2-|-----------------|-----------------|-2-2-2-2-2-2-2-2-|
E|-----------------|-5-5-5-5-5-5-5-5-|-3-3-3-3-2-2-2-2-|-----------------|
B5
e|-----------------|-----------------|-----------------|-----------------|
B|-----------------|-----------------|-----------------|-----------------|
G|-----------------|-----------------|-------------7---|-6---4---2---4-4-|
D|-4-4-4-4-4-4-4-4-|-----------------|-5-5-5-5-5-5---5-|---5---5-------4-|
A|-----------------|-5-5-5-5-5-5-5-5-|-----------------|---------------2-|
E|-----------------|-----------------|-----------------|-----------------|
A5B5
x4
e|-------------------|-----------------------|------9----10---9----|
B|-------------------|------12----15---12----|---10---10--------10-|
G|*-----4-4-2-4---4-*|---11----11---------11-|---------------------|
D|*-----4-4-2-4---4-*|-----------------------|---------------------|
A|------2-2-0-2---2--|-----------------------|---------------------|
E|-------------------|-----------------------|---------------------|

___ ___ ___ ___
/ 3 / 3 / 3 / 3
e|----------------------|-------------------------|-----------------|
B|------12----15---12---|-9-8-7-------------------|---------3-----3-|
G|---11----11-----------|-------9-8-7-------------|-----4-------4---|
D|----------------------|-------------9-7---------|---4---4---------|
A|----------------------|-----------------9-8-7-5-|-2---------------|
E|----------------------|-------------------------|-----------------|
A.H.12
e|----------------------|-----------------|----------------|-----------------|
B|-5-5b(7)-5-3-+5-------|---------5---3p2-|-3-3p2----------|---------3-----3-|
G|----------------------|-----2-----------|------4---------|-----4-------4---|
D|----------------------|---2---2---------|--------4-------|---4---4---------|
A|----------------------|-----------------|----------------|-----------------|
E|----------------------|-----------------|----------------|-----------------|
A.H.12
e|-------------+0-------|-----------------|-----------------|
B|-5-5b(7)-5-3-+5-------|---------5---3p2-|-3-3p2-----------|
G|----------------------|-----2-----------|------4-4------4-|
D|----------------------|---2---2---------|--------4------4-|
A|----------------------|-----------------|---------------2-|
E|----------------------|-----------------|-----------------|
A5B5 ______
x4 / 3
e|-------------------|----------------------------|---15------15------14--|
B|-------------------|-------15-17-19-17-15-------|----x-------x-------x--|
G|*-----4-4-2-4---4-*|*---16----------------16p15-|---15---15-15---15-15-*|
D|*-----4-4-2-4---4-*|*---------------------------|----------------------*|
A|------2-2-0-2---2--|----------------------------|-----------------------|
E|-------------------|----------------------------|-----------------------|
______________________________________
|1. |2.
e|---------------------------|------------------|---------------2-|
B|---------------------------|------------------|-----------2---2-|
G|*-----7-9-9b(11)b(9)-7-----|-----------------*|-----------3---3-|
D|*---9------------------9p8-|-----9---------9-*|-----9-----4---4-|
A|---------------------------|---------------9--|---------------4-|
E|---------------------------|---------------7--|---------------2-|
e|-----------2---2-|--------|
B|-----------2---2-|--------|
G|-----3-3-3-3---3-|--------|
D|-----4-4-4-4---4-|--------|
A|-----4-4-4-------|--------|
E|-----2-2-2-------|--------|
CHORUS:
______________________
|1.
Bm D G

e|--2---2---2-2-2-2-|-----2---2-2-----|-2---2---2-2-2-3-|-----3---3-2--------|
B|--3---3---3-3-3-3-|-----3---3-3-----|-3---3---3-3-3-3-|-----3-------3------|
G|*-4---4---4-4-4-4-|-----4---4-4-----|-2---2---2-2-2-0-|-----0---------4---*|
D|*-4---4---4-4-4-4-|-----4---4-4-----|-0---0---0-0-0-0-|-----0-------------*|
A|------------------|-----------------|-----------------|--------------------|
E|------------------|-----------------|-----------------|--------------------|
__________________
|2.
e|-----3---3---3---|---3-----3-------|---3-----3-------|---3-----3-------|
B|-----3---3---3---|-----6-----6-----|-----4-----4-----|-----3-----3-----|
G|-----0---0---0---|-------5-----5---|-------5-----5---|-------3-----3---|
D|-----0---0---0---|-----------------|-----------------|---------------5-|
A|-----------------|-----------------|-----------------|-----------------|
E|-----------------|-----------------|-----------------|-----------------|
e|---3-----6---3---|---------3-------|---------3-------|-3-------6-------|
B|-----3-----3---3-|---3-------4-----|---4-------4-----|---3-------3-----|
G|-------3---------|-----5-------5---|-----5-------5---|-----3-------3---|
D|-----------------|-------5-------5-|-------5-------5-|-------5-------5-|
A|-----------------|-----------------|-----------------|-----------------|
E|-----------------|-----------------|-----------------|-----------------|
e|---------6-------|--------------------|-----------------|---------6-----6-|
B|---3-------3-----|-8-6-------8----6---|---4-----4---4---|---3-------3-----|
G|-----3-------3---|-----10-------------|-----8-5---5-----|-----3-------3---|
D|-------5---------|--------10---10-----|-----------------|-------5---------|
A|-----------------|--------------------|-----------------|-----------------|
E|-----------------|--------------------|-----------------|-----------------|
G5
e|-----6---6---6---|-----------------|-----------------|--3---3---3-----3-|
B|-3---------------|---4-----4-----4-|---4-----4-------|--3---3---3-----3-|
G|---3---3---3-----|-----5-----5-----|-----5-----5-----|*-0---0---0-----0-|
D|-----------------|-------5-----5---|-------5-----5---|*-----------------|
A|-----------------|-----------------|-----------------|------------------|
E|-----------------|-----------------|-----------------|------------------|
x3
e|---3---3---3------|-----------------||
B|---3---3---3------|-3---------------||
G|---0---0---0-----*|-4---------------||
D|-----------------*|-4---------------||
A|------------------|-2---------------||
E|------------------|-----------------||
| / slide up
| slide down
| h hammer-on
| p pull-off
| ~ vibrato
| + harmonic
| x Mute note
| b Bend
===============================================================================




Ваше мнение



Капча