From [email protected] Sun May 4 10:46:07 1997
Date: Mon, 21 Apr 1997 09:44:11 +0200
From: Carlos
To: [email protected]
Subject: TAB:"EL estanque" by "Heroes del silencio" (improved tab)
[The following text is in the "iso-8859-1" character set]
[Your display is set for the "US-ASCII" character set]
[Some characters may be displayed incorrectly]
El Estanque
Heroes del silencio(El mar no cesa)
Tabbed by Carlos [email protected]
INTRO:
Dm Am C Dm
Dm Am C Dm
E---|--------|--------1--0--|--0-----------|--------------|-------------
B---|--1--3--|-----3--------|-----3--1-----|--------1--3--|--3--1--3----
G---|--------|--2-----------|-----------0--|--0--2--------|-------------
D---|--------|--------------|--------------|--------------|-------------
A---|--------|--------------|--------------|--------------|-------------
E---|--------|--------------|--------------|--------------|-------------
Am C Dm G
E----|--------1--0--|--0-----------|-------------|-----3--|--8--7--3----
B---\|-----3--------|-----3--1-----|-------1--3--|--3-----|-------------
G----|--2-----------|-----------0--|--0h2--------|--------|-------------
D----|--------------|--------------|-------------|--------|-------------
A----|--------------|--------------|-------------|--------|-------------
E----|--------------|--------------|-------------|--------|-------------
Em F Em Bm
E---0--|--------------|--------------|--------------|--------3--2--|----
B------|--5--6--5--1--|--5--6--5--1--|--5--6--5--5--|-----5--------|----
G------|--x-----------|--x-----------|--x-----------|--4-----------|----
D------|--x-----------|--x-----------|--x-----------|--------------|----
A------|--x-----------|--x-----------|--x-----------|--------------|----
E------|--------------|--------------|--------------|--------------|----
D Em Em Bm
E---2-----------|--------------|----------|--------3--2--|--2-----------
B------5--3-----|--------3--5--|--5--3--5\|-----5--------|-----5--3-----
G------------2--|--2--4--------|----------|--4-----------|--------------
D---------------|--------------|----------|--------------|--------------
A---------------|--------------|----------|--------------|--------------
E---------------|--------------|----------|--------------|--------------
D Em G
E------|--------------|--------------------|-----------------3--|--8----
B------|--------3--5--|--------5--------5--|--------5-----------|-------
G---2--|--2--4--------|--4--4-----4--4-----|--4--4-----4--4-----|-------
D------|--------------|--------------------|--------------------|-------
A------|--------------|--------------------|--------------------|-------
E------|--------------|--------------------|--------------------|-------
Em F Em
E---7--3--0--|--------------|--------------|--------------|--------3----
B------------|--5--6--5--1--|--5--6--5--1--|--5--6--5--5--|-----5-------
G------------|--x-----------|--x-----------|--x-----------|--4----------
D------------|--x-----------|--x-----------|--x-----------|-------------
A------------|--x-----------|--x-----------|--x-----------|-------------
E------------|--------------|--------------|--------------|-------------
Bm D Em
E---2--|--2-----------|--------------|----------|-----------------------
B------|-----5--3-----|--------3--5--|--5--3--5\|-----------------------
G------|-----------2--|--2--4--------|----------|-----------------------
D------|--------------|--------------|----------|-----------------------
A------|--------------|--------------|----------|-----------------------
E------|--------------|--------------|----------|-----------------------

Em
Las leyes salvajes
Bm
empaсan mi huida
D Em
el estanque no para de crecer
G Em
tanto sube el nivel
F Am
el mar se derrama ahogбndome
G Em
tanto sube el nivel
F Am
el mar se derrama ahogбndome
A#
ahogandome
Dm
solo hay arena
Dm Am C Dm
E----------|---------1--0--|--0-----------|--------------|-------------
B-----1--3-|------3--------|-----3--1-----|--------1--3--|--3--1--3----
G----------|---2-----------|-----------0--|--0--2--------|-------------
D----------|---------------|--------------|--------------|-------------
A----------|---------------|--------------|--------------|-------------
E----------|---------------|--------------|--------------|-------------

Dm Am
Solo en este momento
C
el malentendido

el estanque
Dm
el estanque

G Em
tanto sube el nivel
F Am
el mar se derrama ahogбndome
A#
ahogandome
Dm
solo hay arena

If you have more Tabs of this band please send it to me.
Carlos, email: [email protected]




Ваше мнение



Капча