Date: Wed, 21 Jan 1998 12:42:57 +0000
From: [email protected]
To: [email protected]
Subject: TAB: 'Bendecida' by 'Heroes del Silencio'
Album: El Espiritu del Vino
========================
Cancion : Bendecida
Por : Heroes Del Silencio
Transcrita por : Rafael Pe?a Villarreal [email protected]"
From : Saltillo, Coahuila Mexico.
Fecha : 19 Noviembre 1997
Riff #1 (Intro):
================
Bm E Bm A 2 times
E|------------------------------------------------------------||
B|------------------------------------------------------------||
G|------slide----------/6-7--6--------------------------------||
D|--9-9-9\----14-------/7------7---9--9-9--------7------------||
A|--9-9-9\----14--------7----------9--9-9--------7------------||
E|----------------------------------------------5-------------||
(Intro Cont):
===============
Distord A A
E|-------5-----------------5----------------------------------|
B|-------5-----------------5----------------------------------|
G|--------6-----------------6---------------------------------|
D|---------7-----7 7-7--------7-----7-----7-------------------|
A|---------7-----7-7-7--------7-----7-----7-------------------|
E|-------5---5-5-----------5------5-----5---------------------|
| Acoustic
E|------------------------------------------------------------|
B|--------------------5-5-------------------------------------|
G|--7-7-6----------------7------------------------------------|
D|-7------7---------7---- 7-----------------------------------|
A|------------------------------------------------------------|
E|------------------------------------------------------------|
Riff #2 : Verses
=================
//
// 3 and 4 verse play only chords with distortion and
// mixed this verses
//
1 Si la pri--
2 Agrio es
3 Nunca
4 Cuando aban
Electric light
Bm A Bm
E|------------------------------------------------------------|
B|------------------------------------------------------------|
G|-----------------------------7-7-6--------------------------|
D|----------9-------7----7--7-------7------------9-----9------|
A|---9----9---------7---7-7-----------------9--9------9-------|
E|--7------------5-------------------------7---------7--------|
1 mera mirada es la que vale Eso ya lo ense?an las
2 el sabor de la noche en abandono hoy sera el dia q inicie
3 he confiado los labios muy finos y de ellos huyo como
4 dones tu sue?o sabras que has muerto y los gusanos estan
Change this x Riff3a 2nd time
A
E|-------------------|-----------------------------------------|
B|-------------------|--------------------5-5------------------|
G|---6------7-7-6----|-------6---------------7-----------------|
D|---7--7--------7---|-------7-----7---7------7----------------|
A|---7---------------|-------7----7----------------------------|
E|--5----------------|----5------------------------------------|
1 madres Recuperare la cordura Hacia
2 el retorno me estorba la memoria y los
3 un fugitivo y amanzas el oleaje que rompe
4 hamriemntos oriente no cree en el sarcasmo que an-
add riff#3 first time
A and go to second verse
E|-----------------------5------------------------------------||
B|----------5-----------5-------------------------------------||
G|-------6-----6--6-6-----------------------------------------||
D|-------7----------7-----------------------------------------||
A|------7-----------7-----------------------------------------||
E|---5--------------5-----------------------------------------||
1 una Fosa Comun cosidos a preguntas
2 sentidos se distran y se equi-
3 contra mis venas purificas el
4 ta?o nos goberno soy el leуn
Riff #3
=======
Distortiom
Bm E Bm Go to Second Verse
E|------------------------------------------------------------|
B|------------------------------------------------------------|
G|------slide-----------6-7--6--------------------------------|
D|--9-9-9\----14--------7------7---9--9-9---------------------|
A|--9-9-9\----14-------------------9--9-9---------------------|
E|------------------------------------------------------------|
Riff #3a
=========
A
E|-------------------|
B|----------5-5------|
G|---6----------7----|
D|---7--7--------7---|
A|---7---------------|
E|--5----------------|
=======|
Chorus |
=======|
Riff#4
=======
Acustic or electric light
D
E|------------------------------------------------------------|
B|----------7-------7----7-----7-------------7-------7--------|
G|------------7---------7-----7---------------7---------------|
D|------7-------7-----7----- 7--------7------- 7--------------|
A|---5----5-------5--5-------5-------5----5-------5-----------|
E|------------------------------------------------------------|
2 -vocan en las aguas de la certeza nos hicimos
3 aire en las aguas de la certeza nos hicimos
4 domado en las aguas de la certeza nos hicimos
Bm
E|------------------------------------------------------------|
B|-----7----------7------9------7-----------7---------7-------|
G|-----7------------7-----------7-------------7---------------|
D|-----9-----9------ 9----------9-------9-------9-------------|
A|-----9------9--------9--------9---------9---------9---------|
E|--7------7----------------7--------7------------------------|
2 la promesa de los lagos de pokara
3 la promesa de los lagos de pokara
4 la promesa de los lagos de pokara
G D
"y el perfume que emane del sexo
A
se fundira en el nuevo grito"
Add olny this first time and go 3th verse
Bm E Bm
E|------------------------------------------------------------|
B|------------------------------------------------------------|
G|------slide-----------6-7--6--------------------------------|
D|--9-9-9\----14--------7------7---9--9-9---------------------|
A|--9-9-9\----14-------------------9--9-9---------------------|
E|-----------------------------------7------------------------|
A
E|----------------------|
B|----------------------|
G|------7-7-6-----------|
D|----7-------7---------|
A|----------------------|
E|----------------------|
Bm D
de las brasas de una constelacion
A Bm
al mundo parecedero
Bm A Em G Bm
bendecida fue la causa de mi fortuna.
Bm D
y de la tierra perdida en la infancia
A Bm
al mundo parecedero
Bm A Em G Bm
bendecida fue la causa de mi fortuna.
F#m Bm
algo que no me han concentido
F#m A
y que ahora busco entre tus huesos
F#m Bm
algo, que desde tan lejos
F#m A
crei que no era, creн que no era mi
estilo
Bm
Bm E Bm
E|------------------------------------------------------------|
B|------------------------------------------------------------|
G|------slide-----------6-7--6--------------------------------|
D|--9-9-9\----14--------7------7---9--9-9---------------------|
A|--9-9-9\----14-------------------9--9-9---------------------|
E|-----------------------------------7------------------------|
A Goto 4th verse
E|------------------|
B|------------------|
G|------7-7-6-------|
D|----7-------7-----|
A|------------------|
E|------------------|
Riff #7 (Outro)
================
E|-----------------------------||-----------------------------|
B|-----------------------------||----------------------5-5----|
G|---------------------7-7-6---||--------------------------7--|
D|-----9---9---9-----7-------7-||------7----7----7---7---- 7--|
A|-----9---9---9---------------||------7----7----7------------|
E|--7----7---7-----------------||----5-----5----5-------------|
E|------------------------------------|
B|------------------------------------|
G|--------- --7-----6--7--------------|
D|---7--7---7----7--------7-----9-----|
A|---7--7-----------------------9-----|
E|-5---5---------------------7--------|
Any questions or corrections are apreappreciated
Rafael Pena V.
[email protected]




Ваше мнение



Капча