Avalancha
=========
Cancion : Avalancha
Por : Heroes Del Silencio
Transcrita por : Sterling Jimenez "[email protected]"
Antes De Empezar A Tocar La Cancion Deben De Aprender los Sig. 2 Riffs:
Riff #1 (Intro):
================
Em Bm A
E|------------------------------------------------------------
B|------------------------------------------------------------
G|-9^9p7---7-7h9-------------6-6h7----9-7-6------6/7/6--------
D|-------9-----------7-7-7-9----------------9-7--------7------
A|------------------------------------------------------------
E|------------------------------------------------------------
E
E|------------------------------------------------------------
B|------------------------------------------------------------
G|--9p7-6---------------9-------------------------------------
D|--------9-7-------------------------------------------------
A|------------10-9-9-7----------------------------------------
E|------------------------------------------------------------
Riff #2 (Entre Versos):
=======================
Em E
E|------------------------------------------------------------
B|-----------------9------------------------------------------
G|-----9^9p7---7-7h9------------------------------------------
D|-----------9-----9------------------------------------------
A|------------------------------------------------------------
E|------------------------------------------------------------
====================================================
Riff#1 (Intro)(Dos Veces)
Riff#2 (Entre Versos)(Una Sola Vez Las Ultimas Notas 9 Del Riff
Son El Mismo E De Principio De Los Versos)
E B A
la locura nunca tuvo maestro
E B
para los que vamos a bogar sin
A
rumbo perpetuo [Riff#2 (Entre Versos)]
E B
en cualquier otra direccin con
A
tal de no domar los caballos de
la exaltacin
E B
la rutina hace sombra a las
A
pupilas, que se cierran a los
Em
disfrutes que nos quedan

ESTRIBILLO :
============
Am G
Avalancha, Avalancha .. AH (4 Veces).
E B A
necesitimos el valioso tiempo
E B
que abandonas sin saber que
A
cojones hacer con ‰l [Riff#2 (Entre Versos)]
E B
nosotros somos la comida y
A
alguien estЯ efectivamente
hambriento
E B
no hay retorno a la conciencia
A
tras el desvario del amor
Em
tempestuoso

ESTRIBILLO

PUENTE :
=======
C D
a”n nos quedan cosas por
Em
hacer,
C
si no das un paso
D
te estancas
C D Em
a”n nos quedan cosas por decir
C
y no hablas... [Riff#1 (Intro)(Dos Veces)]
E B A
la locura nunca tuvo maestro
E B
para los que vamos a bogar sin
A
rumbo perpetuo
E B
la muerte serЯ un adorno que
A
pondr‰ al regalo de mi vida
E B
la luna ejerce extra±os influjos
A
que se contradicen y no hay
Em
quien descifre

ESTRIBILLO * 2




Ваше мнение



Капча