H?roes del Silencio
Avalancha
this is my favorite spanish rock group!!
Tabed out by: Freddy Aguirre
any questions or coments feel free to mail me at:
[email protected]
(Intro)
E|----------------------------------------------------|
B|--------------------------2-------5-----------------|
G|--12p10p9---7---------2-4----6/7-----7-6-4---4/6----|
D|----------9---9---2/4----------------------7-----7--|
A|--------------7-------------------------------------|
E|----------------------------------------------------|
(1er vuelta fin)
E|-------------------------------|
B|-------------------------------|
G|-------------------------------|
D|--7-5------------9-------------|
A|------7-5--------7-------------|
E|-----------7-5-3---------------|
(2da vuelta fin)
E|-------------------------------|
B|-------------------------------|
G|-----------7/9-12-9-12-9-------|
D|--7-5--------------------------|
A|------7-5----------------------|
E|-------------------------------|
(Riff#1)
E|------------------|
B|------------------|
G|--12p10p9---7-----|
D|----------9---9---|
A|--------------7---|
E|------------------|




Ваше мнение



Капча