-----------------------------------------------------------------------------
YOUR HEAD - Helmet
-----------------------------------------------------------------------------

Tabbed by an17nin17
Email - [email protected]

Drop D Tuning - D, A, D, G, B, E

Intro

|---------------------------|-----|
|---------------------------|-0~~-|
|---------------------------|-0~~-|
|---|-3~~-|
|---|-3~~-|
|---|-3~~-|
Play x 8 |

Verse

|-----------------|
|-----------------|
|-----------------|
|-0---8-8-8-8-8-8-|
|-0---8-8-8-8-8-8-|
|-0---8-8-8-8-8-8-|
Play x 12

Chorus

|--------------------------------------------|
|--------------------------------------------|
|--------------------------------------------|
|-12-12-12-12-12-12-12-12-14-1010101010101010|
|-10-10-10-10-10-10-10-10-12-8-8-8-8-8-8-8-8-|
|-10-10-10-10-10-10-10-10-12-8-8-8-8-8-8-8-8-|
Play x 2

|-----------------|
|-----------------|
|-----------------|
|-0---8-8-8-8-8-8-|
|-0---8-8-8-8-8-8-|
|-0---8-8-8-8-8-8-|
Play x 12

|--------------------------------------------|
|--------------------------------------------|
|--------------------------------------------|
|-12-12-12-12-12-12-12-12-14-1010101010101010|
|-10-10-10-10-10-10-10-10-12-8-8-8-8-8-8-8-8-|
|-10-10-10-10-10-10-10-10-12-8-8-8-8-8-8-8-8-|
Play x 2

Middle 8

|-----------------|-----------------|------------------------|
|-----------------|-----------------|-0~~---11~~---1~~---2~~-|
|-----------------|-----------------|-0~~---11~~---0~~---2~~-|
|-0-0-0-2h3-2-2-5-|-0---8-8-8-8-8-8-|-0~~---11~~---0~~---2~~-|
|-0-0-0-2h3-2-2-5-|-0---8-8-8-8-8-8-|------------------------|
|-0-0-0-2h3-2-2-5-|-0---8-8-8-8-8-8-|------------------------|
Play x 8 | Play x 4 |

|--------------------------------------------|
|--------------------------------------------|
|--------------------------------------------|
|-12-12-12-12-12-12-12-12-14-1010101010101010|
|-10-10-10-10-10-10-10-10-12-8-8-8-8-8-8-8-8-|
|-10-10-10-10-10-10-10-10-12-8-8-8-8-8-8-8-8-|
Play x 2

Outro

|-----------------|-----|
|-----------------|-0~~-|
|-----------------|-0~~-|
|-0-0-0-2h3-2-2-5-|-5~~-|
|-0-0-0-2h3-2-2-5-|-5~~-|
|-0-0-0-2h3-2-2-5-|-5~~-|
Play x 12 |

Contact me if you have any comments about this tab.




Ваше мнение



Капча