-----------------------------------------------------------------------------
YOU BORROWED - Helmet
-----------------------------------------------------------------------------

Tabbed by an17nin17
Email - [email protected]

Drop D Tuning – D, A, D, G, B, E

Intro
1,3,4| 2|
|--------------------------|-----|-----|
|--------------------------|-----|-----|
|--------------------------|-----|-----|
|-0--7-0-8--8-/10-1010/3-0-|-3-5-|-3-3-|
|-0--7-0-6--6-/8--8-8-/3-0-|-3-5-|-3-3-|
|-0--7-0-6--6-/8--8-8-/3-0-|-3-5-|-3-3-|

Verse

|--------------------------|
|--------------------------|
|--------------------------|
|-0--1--x-1h2--0--1--1h3-3-|
|-0--1--x-1h2--0--1--1h3-3-|
|-0--1--x-1h2--0--1--1h3-3-|
Play x 6

Chorus
1,3,4| 2|
|--------------------------|-----|-----|
|--------------------------|-----|-----|
|--------------------------|-----|-----|
|-0--7-0-8--8-/10-1010/3-0-|-3-5-|-3-3-|
|-0--7-0-6--6-/8--8-8-/3-0-|-3-5-|-3-3-|
|-0--7-0-6--6-/8--8-8-/3-0-|-3-5-|-3-3-|

|--------------------------|--------------------------------------------|
|--------------------------|--------------------------------------------|
|--------------------------|--------------------------------------------|
|-0--1--x-1h2--0--1--1h3-3-|-0-x-x-1h2-x-x-5--6-5-0-x-x-1h2-x-x-3-x-x-3-|
|-0--1--x-1h2--0--1--1h3-3-|-0-x-x-1h2-x-x-5--6-5-0-x-x-1h2-x-x-3-x-x-3-|
|-0--1--x-1h2--0--1--1h3-3-|-0-x-x-1h2-x-x-5--6-5-0-x-x-1h2-x-x-3-x-x-3-|
Play x 2 | Play x 4

|--------------------------|
|--------------------------|
|--------------------------|
|-0--1--x-1h2--0--1--1h3-3-|
|-0--1--x-1h2--0--1--1h3-3-|
|-0--1--x-1h2--0--1--1h3-3-|
Play x 4

1,3,4| 2|
|--------------------------|-----|-----|
|--------------------------|-----|-----|
|--------------------------|-----|-----|
|-0--7-0-8--8-/10-1010/3-0-|-3-5-|-3-3-|
|-0--7-0-6--6-/8--8-8-/3-0-|-3-5-|-3-3-|
|-0--7-0-6--6-/8--8-8-/3-0-|-3-5-|-3-3-|

|--------------------------|--------------------------------------------|
|--------------------------|--------------------------------------------|
|--------------------------|--------------------------------------------|
|-0--1--x-1h2--0--1--1h3-3-|-0-x-x-1h2-x-x-5--6-5-0-x-x-1h2-x-x-3-x-x-3-|
|-0--1--x-1h2--0--1--1h3-3-|-0-x-x-1h2-x-x-5--6-5-0-x-x-1h2-x-x-3-x-x-3-|
|-0--1--x-1h2--0--1--1h3-3-|-0-x-x-1h2-x-x-5--6-5-0-x-x-1h2-x-x-3-x-x-3-|
Play x 2 | Play x 4

|-------------|
|-------------|
|-------------|
|-4-4-3-x-x-3-|
|-4-4-3-x-x-3-|
|-4-4-3-x-x-3-|
Play x 4

Solo

|---------------------------------------|
|---------------------------------------|
|---------------------------------------|
|-0~~---------------------0~~-----------|
|-0~~---------------------0~~-----------|
|-0~~---------------------0~~-----------|
| Guitar 1
|---------------------------------------|
|---------------------------------------|
|------------10-9--12~~------10-9--12~~-|
|---------------------------------------|
|---------------------------------------|
|---------------------------------------|
Guitar 2

|------------------|
|------------------|
|------------------|
|-0-x-x-3-5--0-6-5-|
|-0-x-x-3-5--0-6-5-|
|-0-x-x-3-5--0-6-5-|
Play x 16

Outro

|-----------------------------------------------------------------------|
|-------------------------------------------------------------------0~~-|
|-------------------------------------------------------------------0~~-|
|-0-0-0-0-0-0-6-6-6-6-6-6-0-0-0-0-0-0-0-0-0-0-0-0-0-0-0-0-0-0-0-0-0-0~~-|
|-0-0-0-0-0-0-6-6-6-6-6-6-0-0-0-0-0-0-0-0-0-0-0-0-0-0-0-0-0-0-0-0-0-0~~-|
|-0-0-0-0-0-0-6-6-6-6-6-6-0-0-0-0-0-0-0-0-0-0-0-0-0-0-0-0-0-0-0-0-0-0~~-|

And That's It.

Contact me if you have any comments about this tab.




Ваше мнение



Капча