-----------------------------------------------------------------------------
VACCINATION - Helmet
-----------------------------------------------------------------------------

Tabbed by an17nin17
Email - [email protected]

Drop D Tuning - D, A, D, G, B, E

Intro/Verse
| 1,2,3,4,5,6,7| 4| 8|
|-------|--------------------------|------------|--------------|--------|
|-------|--------------------------|------------|--------------|--------|
|-------|--------------------------|------------|--------------|--------|
|-0-0-9-|-0-0-9-0-0-0-9-0--0-0-9-0-|-9-10-0-0-9-|-9-12-0-0-9-0-|-10-0-0-|
|-0-0-9-|-0-0-9-0-0-0-9-0--0-0-9-0-|-9-10-0-0-9-|-9-12-0-0-9-0-|-10-0-0-|
|-0-0-9-|-0-0-9-0-0-0-9-0--0-0-9-0-|-9-10-0-0-9-|-9-12-0-0-9-0-|-10-0-0-|

Chorus

|-----------------------------|
|-----------------------------|
|-----------------------------|
|-0--3-0-4-4-4-0--3-0-3-4-4-|
|-0--3-0-4-4-4-0--3-0-3-4-4-|
|-0--3-0-4-4-4-0--3-0-3-4-4-|
Play x 4

|-------|-------------------------------------|
|-------|-------------------------------------|
|-------|-------------------------------------|
|-0-0-9-|-0-0-9-0-0-0-9-0--0-0-9-0-9-10-0-0-9-|
|-0-0-9-|-0-0-9-0-0-0-9-0--0-0-9-0-9-10-0-0-9-|
|-0-0-9-|-0-0-9-0-0-0-9-0--0-0-9-0-9-10-0-0-9-|
| Play x 5

|-----------------------------|
|-----------------------------|
|-----------------------------|
|-0--3-0-4-4-4-0--3-0-3-4-4-|
|-0--3-0-4-4-4-0--3-0-3-4-4-|
|-0--3-0-4-4-4-0--3-0-3-4-4-|
Play x 4

Middle 8

|--------------------------------|
|--------------------------------|
|--------------------------------|
|-6-6-1-1-4-4-6-3--3-1-1-3-3-4-0-|
|-6-6-1-1-4-4-6-3--3-1-1-3-3-4-0-|
|-6-6-1-1-4-4-6-3--3-1-1-3-3-4-0-|
Play x 4

|-------|-------------------------------------|
|-------|-------------------------------------|
|-------|-------------------------------------|
|-0-0-9-|-0-0-9-0-0-0-9-0--0-0-9-0-9-10-0-0-9-|
|-0-0-9-|-0-0-9-0-0-0-9-0--0-0-9-0-9-10-0-0-9-|
|-0-0-9-|-0-0-9-0-0-0-9-0--0-0-9-0-9-10-0-0-9-|
| Play x 6

Outro

|-----------------------------|----------|
|-----------------------------|--MENTAL--|
|-----------------------------|----------|
|-0--3-0-4-4-4-0--3-0-3-4-4-|----------|
|-0--3-0-4-4-4-0--3-0-3-4-4-|-FREAKOUT-|
|-0--3-0-4-4-4-0--3-0-3-4-4-|----------|
Play x 14 |

And That's It.




Ваше мнение



Капча