From: [email protected]
Subject: REQ: UNSUNG: Helmet
Yes, this tune is in a dropped-D tuning, very basic and easy. Here it is:
Intro:
--------------------------------------
--------------------------------------
--------------------------------------
--------------------------------------
-------------------------------------- repeat until verses....
-2-2-2--3-3-3--5-5-5------------------
Verses
----------------------------------------------------------------------
----------------------------------------------------------------------
----------------------------------------------------------------------
--2--2--2------2--0--2-----2--2--2----2--0--2---2-2-2/3-3-3/5-5-5-----
--2--2--2------2--0--2-----2--2--2----2--0--2---2-2-2/3-3-3/5-5-5-----
--2--2--2------2--0--2-----2--2--2----2--0--2---2-2-2/3-3-3/5-5-5-----
Bridge (note: this is very rough and sketchy - I am doing this off the
top of my head)
-----------------------------------
-----------------------------------
-----------------------------------
-5-7-7---5-7-7---5-7-7---5-8-7-----
-5-7-7---5-7-7---5-7-7---5-8-7-----
-5-7-7---5-7-7---5-7-7---5-8-7----- and on....
End of song
-----------------------
-----------------------
-----------------------
-0---2--2--0--2--3-----
-0---2--2--0--2--3-----
-0---2--2--0--2--3-----
The middle 'solo' part in the song is just a 2-note tapping sequence on
different notes on the G and B strings. Hope this helps you somewhat.
|---------------------------------------------------------------------|
| | "Got sh*t on, p*ssed on, |
| Steve Mueller | spit on, stepped on, |
| Arizona State University | f*cked with, pointed at |
| Email: [email protected] | by lesser men." |
| | - "A New Level", Pantera |
|----------------------------------|----------------------------------|




Ваше мнение



Капча