-----------------------------------------------------------------------------
UNSUNG - Helmet
-----------------------------------------------------------------------------

Tabbed by an17nin17
Email - [email protected]

Drop D Tuning – D, A, D, G, B, E

Intro

|------|-----------------|-----------------|-----|
|-BASS-|-----------------|-----------------|-----|
|------|-----------------|-----------------|-----|
|------|-2-2-2-3-3-3-5-5-|-2-2-2-3-3-3-5-5-|-0~~-|
|-ONLY-|-2-2-2-3-3-3-5-5-|-2-2-2-3-3-3-5-5-|-0~~-|
|------|-2-2-2-3-3-3-5-5-|-2-2-2-3-3-3-5-5-|-0~~-|
| G 1 | Play x 4 (w/PM) | Play x 6 |
|------|-----------------|---------3~~-----|-----|
|------|-----------------|-5~~-0---3~~-----|-----|
|------|-----------------|---------0~~-----|-----|
|------|-----------------|---------0~~-----|-0~~-|
|------|-----------------|-----------------|-0~~-|
|------|-----------------|-----------------|-0~~-|
Guitar 2

Verse

|--------------------------------------------|
|--------------------------------------------|
|--------------------------------------------|
|-2-2-2--2-0-2--2-2-2--2-0-2-2-2-2-3-3-3-5-5-|
|-2-2-2--2-0-2--2-2-2--2-0-2-2-2-2-3-3-3-5-5-|
|-2-2-2--2-0-2--2-2-2--2-0-2-2-2-2-3-3-3-5-5-|
Play x 6

Chorus

|-----------------------------------------------------------------|
|-----------------------------------------------------------------|
|-----------------------------------------------------------------|
|-0-0-0-0-0-0-0-0-0-0-0-0-0-0-0-0-2-2-2-2-2-2-2-2-2-2-2-2-2-2-2-2-|
|-0-0-0-0-0-0-0-0-0-0-0-0-0-0-0-0-2-2-2-2-2-2-2-2-2-2-2-2-2-2-2-2-|
|-0-0-0-0-0-0-0-0-0-0-0-0-0-0-0-0-2-2-2-2-2-2-2-2-2-2-2-2-2-2-2-2-|
Play x 2

|-----------------------------------------------------|
|-----------------------------------------------------|
|-----------------------------------------------------|
|-10-10-10-10-10-10-10-10-10-10-10-10-7-7-7-7-7-7-7-7-|
|-10-10-10-10-10-10-10-10-10-10-10-10-7-7-7-7-7-7-7-7-|
|-10-10-10-10-10-10-10-10-10-10-10-10-7-7-7-7-7-7-7-7-|

Post – Chorus

|----------------------|
|----------------------|
|----------------------|
|-0---2-0-2--0---2-2-2-|
|-0---2-0-2--0---2-2-2-|
|-0---2-0-2--0---2-2-2-|

|--------------------------------------------|
|--------------------------------------------|
|--------------------------------------------|
|-2-2-2--2-0-2--2-2-2--2-0-2-2-2-2-3-3-3-5-5-|
|-2-2-2--2-0-2--2-2-2--2-0-2-2-2-2-3-3-3-5-5-|
|-2-2-2--2-0-2--2-2-2--2-0-2-2-2-2-3-3-3-5-5-|
Play x 6

|-----------------------------------------------------------------|
|-----------------------------------------------------------------|
|-----------------------------------------------------------------|
|-0-0-0-0-0-0-0-0-0-0-0-0-0-0-0-0-2-2-2-2-2-2-2-2-2-2-2-2-2-2-2-2-|
|-0-0-0-0-0-0-0-0-0-0-0-0-0-0-0-0-2-2-2-2-2-2-2-2-2-2-2-2-2-2-2-2-|
|-0-0-0-0-0-0-0-0-0-0-0-0-0-0-0-0-2-2-2-2-2-2-2-2-2-2-2-2-2-2-2-2-|

|-----------------------------------------------------------------------|
|-----------------------------------------------------------------------|
|-----------------------------------------------------------------------|
|-10-10-10-10-10-10-10-10-10-10-10-10-7-7-7-7-7-7-7-7-10-10-10-10-10-10-|
|-10-10-10-10-10-10-10-10-10-10-10-10-7-7-7-7-7-7-7-7-10-10-10-10-10-10-|
|-10-10-10-10-10-10-10-10-10-10-10-10-7-7-7-7-7-7-7-7-10-10-10-10-10-10-|

|-----------------------------------------------------------------------|
|-----------------------------------------------------------------------|
|-----------------------------------------------------------------------|
|-10-10-0-0-0-0-0-0-0-0-0-0-0-0-0-0-0-0-2-2-2-2-2-2-2-2-2-2-2-2-2-2-2-2-|
|-10-10-0-0-0-0-0-0-0-0-0-0-0-0-0-0-0-0-2-2-2-2-2-2-2-2-2-2-2-2-2-2-2-2-|
|-10-10-0-0-0-0-0-0-0-0-0-0-0-0-0-0-0-0-2-2-2-2-2-2-2-2-2-2-2-2-2-2-2-2-|

|----------------------------------------------------------|
|----------------------------------------------------------|
|----------------------------------------------------------|
|-3-3-3-3-3-3-3-3-3-3-3-3-3-3-3-3-/12-12-12-12-12-12-12-12-|
|-3-3-3-3-3-3-3-3-3-3-3-3-3-3-3-3-/12-12-12-12-12-12-12-12-|
|-3-3-3-3-3-3-3-3-3-3-3-3-3-3-3-3-/12-12-12-12-12-12-12-12-|

Middle 8

|-------------------------------------------------------------------|
|-------------------------------------------------------------------|
|-------------------------------------------------------------------|
|-5h7-7-7-5h7-7-7-5h7-7-7-5h7-7-7-5h7-7-7-5h7-7-7-5h7-7-7-5h7-7-7-8-|
|-5h7-7-7-5h7-7-7-5h7-7-7-5h7-7-7-5h7-7-7-5h7-7-7-5h7-7-7-5h7-7-7-8-|
|-5h7-7-7-5h7-7-7-5h7-7-7-5h7-7-7-5h7-7-7-5h7-7-7-5h7-7-7-5h7-7-7-8-|
Play x 2

|-------------|
|-------------|
|-------------|
|-0-0-2-0-2-3-|
|-0-0-2-0-2-3-|
|-0-0-2-0-2-3-|

|-------------------------------------------------------------------|
|-------------------------------------------------------------------|
|-------------------------------------------------------------------|
|-5h7-7-7-5h7-7-7-5h7-7-7-5h7-7-7-5h7-7-7-5h7-7-7-5h7-7-7-5h7-7-7-8-|
|-5h7-7-7-5h7-7-7-5h7-7-7-5h7-7-7-5h7-7-7-5h7-7-7-5h7-7-7-5h7-7-7-8-|
|-5h7-7-7-5h7-7-7-5h7-7-7-5h7-7-7-5h7-7-7-5h7-7-7-5h7-7-7-5h7-7-7-8-|
| Guitar 1
|-5-5-5-5-5-5-5-5-5-5-5-5-5-5-5-5-5-5-5-5-5-5-5-5-5-5-5-5-5-5-5-5-5-|
|-5-5-5-5-5-5-5-5-5-5-5-5-5-5-5-5-5-5-5-5-5-5-5-5-5-5-5-5-5-5-5-5-5-|
|-0-0-0-0-0-0-0-0-0-0-0-0-0-0-0-0-0-0-0-0-0-0-0-0-0-0-0-0-0-0-0-0-0-|
|-7-7-7-7-7-7-7-7-7-7-7-7-7-7-7-7-7-7-7-7-7-7-7-7-7-7-7-7-7-7-7-7-7-|
|-0-0-0-0-0-0-0-0-0-0-0-0-0-0-0-0-0-0-0-0-0-0-0-0-0-0-0-0-0-0-0-0-0-|
|-------------------------------------------------------------------|
Guitar 2
Play x 2

|-------------|
|-------------|
|-------------|
|-0-0-2-0-2-3-|
|-0-0-2-0-2-3-|
|-0-0-2-0-2-3-|

|-------------------------------------------------------------------|
|-------------------------------------------------------------------|
|-------------------------------------------------------------------|
|-5h7-7-7-5h7-7-7-5h7-7-7-5h7-7-7-5h7-7-7-5h7-7-7-5h7-7-7-5h7-7-7-8-|
|-5h7-7-7-5h7-7-7-5h7-7-7-5h7-7-7-5h7-7-7-5h7-7-7-5h7-7-7-5h7-7-7-8-|
|-5h7-7-7-5h7-7-7-5h7-7-7-5h7-7-7-5h7-7-7-5h7-7-7-5h7-7-7-5h7-7-7-8-|
| Guitar 1
|-5-5-5-5-5-5-5-5-5-5-5-5-5-5-5-5-5-5-5-5-5-5-5-5-5-5-5-5-5-5-5-5-5-|
|-5-5-5-5-5-5-5-5-5-5-5-5-5-5-5-5-5-5-5-5-5-5-5-5-5-5-5-5-5-5-5-5-5-|
|-0-0-0-0-0-0-0-0-0-0-0-0-0-0-0-0-0-0-0-0-0-0-0-0-0-0-0-0-0-0-0-0-0-|
|-7-7-7-7-7-7-7-7-7-7-7-7-7-7-7-7-7-7-7-7-7-7-7-7-7-7-7-7-7-7-7-7-7-|
|-0-0-0-0-0-0-0-0-0-0-0-0-0-0-0-0-0-0-0-0-0-0-0-0-0-0-0-0-0-0-0-0-0-|
|-------------------------------------------------------------------|
Guitar 2
Play x 2

|-----------------------------------------------------|
|-----------------------------------------------------|
|-----------------------------------------------------|
|-0-0-2-0-2-3--0-0-2-0-2-3--0-0-2-0-2-3--0-0-2-0-3-/5-|
|-0-0-2-0-2-3--0-0-2-0-2-3--0-0-2-0-2-3--0-0-2-0-3-/5-|
|-0-0-2-0-2-3--0-0-2-0-2-3--0-0-2-0-2-3--0-0-2-0-3-/5-|
Play x 4

Outro

|-------|-3-3-3-3-3-3-3-3-3-3-3-3-3-3-3-3-1-1-1-1-1-1-1-1-1-1-1-1-1-1-1-1-|
|-------|-3-3-3-3-3-3-3-3-3-3-3-3-3-3-3-3-1-1-1-1-1-1-1-1-1-1-1-1-1-1-1-1-|
|-------|-0-0-0-0-0-0-0-0-0-0-0-0-0-0-0-0-0-0-0-0-0-0-0-0-0-0-0-0-0-0-0-0-|
|-0---2-|-5-5-5-5-5-5-5-5-5-5-5-5-5-5-5-5-3-3-3-3-3-3-3-3-3-3-3-3-3-3-3-3-|
|-0---2-|-----------------------------------------------------------------|
|-0---2-|-----------------------------------------------------------------|

|-3-3-3-3-3-3-3-3-3-3-3-3-3-3-3-3-3-3-3-3-3-3-3-3-3-3-3-3-3-3-3-3-|
|-3-3-3-3-3-3-3-3-3-3-3-3-3-3-3-3-3-3-3-3-3-3-3-3-3-3-3-3-3-3-3-3-|
|-0-0-0-0-0-0-0-0-0-0-0-0-0-0-0-0-0-0-0-0-0-0-0-0-0-0-0-0-0-0-0-0-|
|-5-5-5-5-5-5-5-5-5-5-5-5-5-5-5-5-5-5-5-5-5-5-5-5-5-5-5-5-5-5-5-5-|
|-----------------------------------------------------------------|
|-----------------------------------------------------------------|

|-1-1-1-1-1-1-1-1-1-1-1-1-1-1-1-1-/10-10-10-10-10-10-10-10-10-10-10-10-10-|
|-1-1-1-1-1-1-1-1-1-1-1-1-1-1-1-1-/10-10-10-10-10-10-10-10-10-10-10-10-10-|
|-0-0-0-0-0-0-0-0-0-0-0-0-0-0-0-0--0--0--0--0--0--0--0--0--0--0--0--0--0--|
|-3-3-3-3-3-3-3-3-3-3-3-3-3-3-3-3-/12-12-12-12-12-12-12-12-12-12-12-12-12-|
|-------------------------------------------------------------------------|
|-------------------------------------------------------------------------|

|-5-5-5-5-5-5-5-5-5-5-5-5-5-5-5-5-5-5-5-5-5-5-5-5-5-5-5-5-5-5-5-5-|
|-5-5-5-5-5-5-5-5-5-5-5-5-5-5-5-5-5-5-5-5-5-5-5-5-5-5-5-5-5-5-5-5-|
|-0-0-0-0-0-0-0-0-0-0-0-0-0-0-0-0-0-0-0-0-0-0-0-0-0-0-0-0-0-0-0-0-|
|-7-7-7-7-7-7-7-7-7-7-7-7-7-7-7-7-7-7-7-7-7-7-7-7-7-7-7-7-7-7-7-7-|
|-0-0-0-0-0-0-0-0-0-0-0-0-0-0-0-0-0-0-0-0-0-0-0-0-0-0-0-0-0-0-0-0-|
|-----------------------------------------------------------------|

|-5-5-5-5-5-5-5-5-5-5-5-5-5-5-5-5-------------|
|-5-5-5-5-5-5-5-5-5-5-5-5-5-5-5-5-------------|
|-0-0-0-0-0-0-0-0-0-0-0-0-0-0-0-0-------------|
|-7-7-7-7-7-7-7-7-7-7-7-7-7-7-7-7-2-0-2-0-2-3-|
|-0-0-0-0-0-0-0-0-0-0-0-0-0-0-0-0-2-0-2-0-2-3-|
|---------------------------------2-0-2-0-2-3-|

And That's It.

Contact me if you have any comments about this tab.




Ваше мнение



Капча