-----------------------------------------------------------------------------
TURNED OUT - Helmet
-----------------------------------------------------------------------------

Tabbed by an17nin17
Email - [email protected]

Drop D Tuning – D, A, D, G, B, E

Intro

|---------------------------------|
|------------0-0-0--0--0-0-0--0-0-|
|------------0-0-0--0--0-0-0--0-0-|
|-0-0-2-2-3--3-3-3--3--3-3-3--3-3-|
|-0-0-2-2-3--3-3-3--3--3-3-3--3-3-|
|-0-0-2-2-3--3-3-3--3--3-3-3--3-3-|
Play x 3

Verse

|---------|--------------------------|-----------------|
|---------|--------------------------|-----------------|
|---------|--------------------------|-----------------|
|-4-3-0-3-|-3-0-4-3-0-3--3-0-4-3-0-3-|-4-3-0-5-3-0-2~~-|
|-4-3-0-3-|-3-0-4-3-0-3--3-0-4-3-0-3-|-4-3-0-5-3-0-2~~-|
|-4-3-0-3-|-3-0-4-3-0-3--3-0-4-3-0-3-|-4-3-0-5-3-0-2~~-|
| Play x 7 |

|---------|--------------------------|
|---------|--------------------------|
|---------|--------------------------|
|-4-3-0-3-|-3-0-4-3-0-3--3-0-4-3-0-3-|
|-4-3-0-3-|-3-0-4-3-0-3--3-0-4-3-0-3-|
|-4-3-0-3-|-3-0-4-3-0-3--3-0-4-3-0-3-|
| Play x 7

Chorus

|-----3-3-3-----5-5-5-----6-6-6-----8-8-8-8-8-8-|
|-----3-3-3-----5-5-5-----6-6-6-----8-8-8-8-8-8-|
|-----2-2-2-----4-4-4-----5-5-5-----7-7-7-7-7-7-|
|-0-0-0-0---2-2-2-2---3-3-3-3---5-5-5-5---------|
|-0-0-0-0---2-2-2-2---3-3-3-3---5-5-5-5---------|
|-0-0-0-0---2-2-2-2---3-3-3-3---5-5-5-5---------|
Play x 2

Post – Chorus
1,3| 2,4|
|-------------------------|--------------------------|-----------------|
|-------------------------|--------------------------|-----------------|
|-------------------------|--------------------------|-----------------|
|-4-3-0-0-4-3-0-0-4-3-0-3-|-0-0-4-3-0-0-4-3-/7-6-6-6-|-0-0-0-4-3-0-0-0-|
|-4-3-0-0-4-3-0-0-4-3-0-3-|-0-0-4-3-0-0-4-3-/7-6-6-6-|-0-0-0-4-3-0-0-0-|
|-4-3-0-0-4-3-0-0-4-3-0-3-|-0-0-4-3-0-0-4-3-/7-6-6-6-|-0-0-0-4-3-0-0-0-|
PM………………………………………………………………………………………………………… PM…………………………………

Middle 8

|-----------|---------------------------------|
|-----------|-0-0-0-0-0-0-0-0-0-0-0-0-0-0-0-0-|
|-----------|-0-0-0-0-0-0-0-0-0-0-0-0-0-0-0-0-|
|-0-0-3-0-3-|-5-5-5-5-5-5-5-5-5-5-5-5-5-5-5-5-|
|-0-0-3-0-3-|-5-5-5-5-5-5-5-5-5-5-5-5-5-5-5-5-|
|-0-0-3-0-3-|-5-5-5-5-5-5-5-5-5-5-5-5-5-5-5-5-|
| Play x 2

Solo

|--------------------------|---------|
|--------------------------|---------|
|--------------------------|---------|
|-3-3-3-5-3-0-0--0-0-3-0-0-|-5-3-0-0-|
|-3-3-3-5-3-0-0--0-0-3-0-0-|-5-3-0-0-|
|-3-3-3-5-3-0-0--0-0-3-0-0-|-5-3-0-0-|
PM………………………………………………………… |
Play x 28 |

|-----3-3-3-----5-5-5-----6-6-6-----8-8-8-8-8-8-|
|-----3-3-3-----5-5-5-----6-6-6-----8-8-8-8-8-8-|
|-----2-2-2-----4-4-4-----5-5-5-----7-7-7-7-7-7-|
|-0-0-0-0---2-2-2-2---3-3-3-3---5-5-5-5---------|
|-0-0-0-0---2-2-2-2---3-3-3-3---5-5-5-5---------|
|-0-0-0-0---2-2-2-2---3-3-3-3---5-5-5-5---------|
Play x 4

1,3| 2,4|
|-------------------------|--------------------------|--------------------|
|-------------------------|--------------------------|--------------------|
|-------------------------|--------------------------|-----------------17^|
|-4-3-0-0-4-3-0-0-4-3-0-3-|-0-0-4-3-0-0-4-3-/7-6-6-6-|-0-0-0-4-3-0-0-0----|
|-4-3-0-0-4-3-0-0-4-3-0-3-|-0-0-4-3-0-0-4-3-/7-6-6-6-|-0-0-0-4-3-0-0-0----|
|-4-3-0-0-4-3-0-0-4-3-0-3-|-0-0-4-3-0-0-4-3-/7-6-6-6-|-0-0-0-4-3-0-0-0----|

Outro

|---------------------------------|-----------------|
|------------0-0-0--0--0-0-0--0-0-|-----------------|
|------------0-0-0--0--0-0-0--0-0-|-----------------|
|-0-0-2-2-3--3-3-3--3--3-3-3--3-3-|-4-3-0-5-3-0-2~~-|
|-0-0-2-2-3--3-3-3--3--3-3-3--3-3-|-4-3-0-5-3-0-2~~-|
|-0-0-2-2-3--3-3-3--3--3-3-3--3-3-|-4-3-0-5-3-0-2~~-|
Play x 3 |

And That's It

Contact me if you have any comments about this tab.




Ваше мнение



Капча