-----------------------------------------------------------------------------
TIC - Helmet
-----------------------------------------------------------------------------

Tabbed by an17nin17
Email - [email protected]

Drop D Tuning - D, A, D, G, B, E

Intro/Verse

|-----------------------|
|-----------------------|
|-----------------------|
|-0--5-0--3---0-0-4-0-0-|
|-0--5-0--3---0-0-4-0-0-|
|-0--5-0--3---0-0-4-0-0-|
Play x 5

Chorus

|-----------------------------------------------------------------|
|-3-3-3-3-3-3-3-3-3-3-3-3-3-3-3-3-3-3-3-3-3-3-3-3-3-3-3-3-3-3-0~~-|
|-0-0-0-0-0-0-0-0-0-0-0-0-0-0-0-0-0-0-0-0-0-0-0-0-0-0-0-0-0-0-0~~-|
|-3-3-3-3-3-3-3-3-3-3-3-3-3-3-3-3-3-3-3-3-3-3-3-3-3-3-3-3-3-3-3~~-|
|-2-2-2-2-2-2-2-2-2-2-2-2-2-2-2-2-2-2-2-2-2-2-2-2-2-2-2-2-2-2-3~~-|
|-3-3-3-3-3-3-3-3-3-3-3-3-3-3-3-3-3-3-3-3-3-3-3-3-3-3-3-3-3-3-3~~-|
Play x 2

|-----------------------|---------|-----------------------|
|-----------------------|---------|-----------------------|
|-----------------------|---------|-----------------------|
|-0--5-0--3---0-0-4-0-0-|-x-x-x-x-|-0--5-0--3---0-0-4-0-0-|
|-0--5-0--3---0-0-4-0-0-|-x-x-x-x-|-0--5-0--3---0-0-4-0-0-|
|-0--5-0--3---0-0-4-0-0-|-x-x-x-x-|-0--5-0--3---0-0-4-0-0-|
| Play x 3
1,2|
|-------------------------------------------------------------|-----|
|-3-3-3-3-3-3-3-3-3-3-3-3-3-3-3-3-3-3-3-3-3-3-3-3-3-3-3-3-3-3-|-0~~-|
|-0-0-0-0-0-0-0-0-0-0-0-0-0-0-0-0-0-0-0-0-0-0-0-0-0-0-0-0-0-0-|-0~~-|
|-3-3-3-3-3-3-3-3-3-3-3-3-3-3-3-3-3-3-3-3-3-3-3-3-3-3-3-3-3-3-|-3~~-|
|-2-2-2-2-2-2-2-2-2-2-2-2-2-2-2-2-2-2-2-2-2-2-2-2-2-2-2-2-2-2-|-3~~-|
|-3-3-3-3-3-3-3-3-3-3-3-3-3-3-3-3-3-3-3-3-3-3-3-3-3-3-3-3-3-3-|-3~~-|
Play x 3
3|
|-----------------|
|-----------------|
|-----------------|
|-3-3-3-3-3-3-3-3-|
|-3-3-3-3-3-3-3-3-|
|-3-3-3-3-3-3-3-3-|

Solo
1,3,5,7| 2,4,6| 8|
|-----------------------|-------|---------|-------------------|
|-----------------------|-------|---------|-------------------|
|-----------------------|-------|---------|-------------------|
|-0---/12-0-0-10--10-10-|-6-5~~-|-3-3-3-0-|-10-10-10-10-10-10-|
|-0---/12-0-0-10--10-10-|-6-5~~-|-3-3-3-0-|-10-10-10-10-10-10-|
|-0---/12-0-0-10--10-10-|-6-5~~-|-3-3-3-0-|-10-10-10-10-10-10-|

1,2|
|-------------------------------------------------------------|-----|
|-3-3-3-3-3-3-3-3-3-3-3-3-3-3-3-3-3-3-3-3-3-3-3-3-3-3-3-3-3-3-|-0~~-|
|-0-0-0-0-0-0-0-0-0-0-0-0-0-0-0-0-0-0-0-0-0-0-0-0-0-0-0-0-0-0-|-0~~-|
|-3-3-3-3-3-3-3-3-3-3-3-3-3-3-3-3-3-3-3-3-3-3-3-3-3-3-3-3-3-3-|-3~~-|
|-2-2-2-2-2-2-2-2-2-2-2-2-2-2-2-2-2-2-2-2-2-2-2-2-2-2-2-2-2-2-|-3~~-|
|-3-3-3-3-3-3-3-3-3-3-3-3-3-3-3-3-3-3-3-3-3-3-3-3-3-3-3-3-3-3-|-3~~-|
Play x 3
3|
|-----------------|
|-----------------|
|-----------------|
|-3-3-3-3-3-3-3-3-|
|-3-3-3-3-3-3-3-3-|
|-3-3-3-3-3-3-3-3-|

Outro

|---------------------------------|
|---------------------------------|
|---------------------------------|
|-0-0-0-0-0-0-0-0-0-0-0-0-0-0-0-0-|
|-0-0-0-0-0-0-0-0-0-0-0-0-0-0-0-0-|
|-0-0-0-0-0-0-0-0-0-0-0-0-0-0-0-0-|
PM.............................
Play x 20

Contact me if you have any comments about this tab.




Ваше мнение



Капча