-----------------------------------------------------------------------------
THE SILVER HAWAIIAN - Helmet
-----------------------------------------------------------------------------

Tabbed by an17nin17
Email - [email protected]

Drop D Tuning - D, A, D, G, B, E

Intro

|------------|
|------------|
|------------|
|------------|
|-7-0-5-6--6-|
|-7-0-5-6--6-|
Play x 8

Verse
1,3| 2,4|
|------------------------------------|------------|-----------------|
|------------------------------------|------------|-----------------|
|------------------------------------|------------|-----------------|
|------------------------------------|------------|-----------------|
|-4-2-4--4-2-4--4-2-4--2-4--2-4--2-4-|-4--0--2--4-|-4-0-0-5-0-0-6-0-|
|-4-2-4--4-2-4--4-2-4--2-4--2-4--2-4-|-4--0--2--4-|-4-0-0-5-0-0-6-0-|

Chorus

|------------------------------------|
|------------------------------------|
|------------------------------------|
|------------------------------------|
|-2-3-4-0-2-3-4-7--2--3-4-7-2-3-4-10-|
|-2-3-4-0-2-3-4-7--2--3-4-7-2-3-4-10-|
Play x 2

1,3| 2,4|
|------------------------------------|------------|-----------------|
|------------------------------------|------------|-----------------|
|------------------------------------|------------|-----------------|
|------------------------------------|------------|-----------------|
|-4-2-4--4-2-4--4-2-4--2-4--2-4--2-4-|-4--0--2--4-|-4-0-0-5-0-0-6-0-|
|-4-2-4--4-2-4--4-2-4--2-4--2-4--2-4-|-4--0--2--4-|-4-0-0-5-0-0-6-0-|

|------------|
|------------|
|------------|
|------------|
|-7-0-5-6--6-|
|-7-0-5-6--6-|
Play x 8

Outro

|------------------------------------------------|
|------------------------------------------------|
|------------------------------------------------|
|------------------------------------------------|
|-3-2--0-2--0-2--3-2-----3-2--0-2--0-2--3-2------|
|-3-2--0-2--0-2--3-2-----3-2--0-2--0-2--3-2------|
Play x 5

And That's It.




Ваше мнение



Капча