-----------------------------------------------------------------------------
TAKEN - Helmet
-----------------------------------------------------------------------------

Tabbed by an17nin17
Email - [email protected]

Standard Tuning - E, A, D, G, B, E

Intro/Verse

|------------------|
|------------------|
|------------------|
|-5-5------5-5-----|
|-5-5---5-5--|
|-3-3---3-3--|
Play x 16

Chorus

|----------------------------|
|----------------------------|
|----------------------------|
|-5-5-7--5-5-7-5--5-7--5-5-7-|
|-5-5-7--5-5-7-5--5-7--5-5-7-|
|-3-3-5--3-3-5-3--3-5--3-3-5-|
Play x 4

|------------------|
|------------------|
|------------------|
|-5-5------5-5-----|
|-5-5---5-5--|
|-3-3---3-3--|
Play x 16

|----------------------------|
|----------------------------|
|----------------------------|
|-5-5-7--5-5-7-5--5-7--5-5-7-|
|-5-5-7--5-5-7-5--5-7--5-5-7-|
|-3-3-5--3-3-5-3--3-5--3-3-5-|
Play x 8

Middle 8

|------------------|
|------------------|
|------------------|
|-9-9------9-9-----|
|-9-9---9-9--|
|-7-7---7-7--|
Play x 8

|------------------|
|------------------|
|------------------|
|-5-5------5-5-----|
|-5-5---5-5--|
|-3-3---3-3--|
Play x 16

|----------------------------|
|----------------------------|
|----------------------------|
|-5-5-7--5-5-7-5--5-7--5-5-7-|
|-5-5-7--5-5-7-5--5-7--5-5-7-|
|-3-3-5--3-3-5-3--3-5--3-3-5-|
Play x 8

Outro

|-----------0~~-|
|-----------0~~-|
|-----------0~~-|
|-9-9-9-9-9-9~~-|
|-9-9-9-9-9-9~~-|
|-7-7-7-7-7-7~~-|

And That's it

Contact me if you have any comments about this tab.




Ваше мнение



Капча