-----------------------------------------------------------------------------
SYMPTOM OF THE UNIVERSE - Helmet
-----------------------------------------------------------------------------

Tabbed by an17nin17
Email - [email protected]

Standard Tuning – E, A, D, G, B, E

Intro/Verse

|------------------------------------------|
|------------------------------------------|
|------------------------------------------|
|------------------------------------------|
|-2-2-2-2-2-2-/8--8-2-2-2-2-2-2-2-2-9-8--8-|
|-0-0-0-0-0-0-/6--6-0-0-0-0-0-0-0-0-7-6--6-|
PM……………………… PM…………………………………
Play x 8

Chorus

|-----------|
|-----------|
|-7---3---2-|
|-7---3---2-|
|-5---1---0-|
|-----------|
Play x 2

|------------------------------------------|
|------------------------------------------|
|------------------------------------------|
|------------------------------------------|
|-2-2-2-2-2-2-/8--8-2-2-2-2-2-2-2-2-9-8--8-|
|-0-0-0-0-0-0-/6--6-0-0-0-0-0-0-0-0-7-6--6-|
PM……………………… PM…………………………………
Play x 4

|-----------|
|-----------|
|-7---3---2-|
|-7---3---2-|
|-5---1---0-|
|-----------|
Play x 2

Middle 8

|-------------|
|-------------|
|-------------|
|-4-4-4-4-4-4-|
|-4-4-4-4-4-4-|
|-2-2-2-2-2-2-|
Play x 8

|------------------------------------------|
|------------------------------------------|
|------------------------------------------|
|------------------------------------------|
|-2-2-2-2-2-2-/8--8-2-2-2-2-2-2-2-2-9-8--8-|
|-0-0-0-0-0-0-/6--6-0-0-0-0-0-0-0-0-7-6--6-|
PM……………………… PM…………………………………
Play x 4

|-----------|
|-----------|
|-7---3---2-|
|-7---3---2-|
|-5---1---0-|
|-----------|
Play x 2

Outro

|-------------------------|--------|
|-------------------------|-GUITAR-|
|-------------------------|--------|
|-10101010101010108-8-8-8-|--------|
|-10101010101010108-8-8-8-|-NOISE--|
|-8-8-8-8-8-8-8-8-6-6-6-6-|--------|
Play x 22 |

And Thats it.

Contact me if you have any comments about this tab.




Ваше мнение



Капча