-----------------------------------------------------------------------------
STREET CRAB - Helmet
-----------------------------------------------------------------------------

Tabbed by an17nin17
Email - [email protected]

Drop D Tuning - D, A, D, G, B, E

Intro

|--------------------|--------------------------------------------------|
|--------------------|--------------------------------------------------|
|--------------------|--------------------------------------------------|
|----------------0~~-|--------------------------------------------0-----|
|-------2------0-----|-------2------------2------0-------2------0-----0-|
|-0-3p0---3-/6-------|-0-3p0---3~~-0--3p0---3-/5---0-3p0---3-/6-----6---|

|------------------------------------------------------------|
|------------------------------------------------------------|
|--------------------------------------------------------0~~-|
|------------------------------------------------------------|
|---0---0---0-------2------------2------0-------2------0-----|
|-6---6---6---0-3p0---3~~-0--3p0---3-/5---0-3p0---3-/6-------|

Verse
| 1| 2,4|
|-----------|---------------------------------------|---------|---------|
|-----------|---------------------------------------|---------|---------|
|-----------|---------------------------------------|---------|---------|
|-0---3-0-3-|-0-0-0-3-0-3--0-0-0-3-0-3--0-0-0-3-0-3-|-3-3-3-3-|-5-5-5-5-|
|-0---3-0-3-|-0-0-0-3-0-3--0-0-0-3-0-3--0-0-0-3-0-3-|-3-3-3-3-|-5-5-5-5-|
|-0---3-0-3-|-0-0-0-3-0-3--0-0-0-3-0-3--0-0-0-3-0-3-|-3-3-3-3-|-5-5-5-5-|

3| 5|
|------|-------------------------------------|
|------|-------------------------------------|
|------|-------------------------------------|
|-1--2-|-3-3-3-0--2-3--0--2-3--0--2-3--0-3-5-|
|-1--2-|-3-3-3-0--2-3--0--2-3--0--2-3--0-3-5-|
|-1--2-|-3-3-3-0--2-3--0--2-3--0--2-3--0-3-5-|

Chorus
1,3,5| 2,4,6|
|---------------------|-------------|---------------|
|---------------------|-------------|---------------|
|---------------------|-------------|---------------|
|-0-0-0-3-0-3--0--0-0-|-3-0-/10-9-0-|-1-0-0-/5--5-6-|
|-0-0-0-3-0-3--0--0-0-|-3-0-/10-9-0-|-1-0-0-/5--5-6-|
|-0-0-0-3-0-3--0--0-0-|-3-0-/10-9-0-|-1-0-0-/5--5-6-|

Post - Chorus

|-----------------------------------------------------------------------|
|-------------------------------------------------------3-3-3-3-3-3-3-3-|
|-------------------------------------------------------3-3-3-3-3-3-3-3-|
|-0-0-0-3-0-3--0-0-0-3-0-3--0-0-0-3-0-3--0-0-0-3-0-5-2--2-2-2-2-2-2-2-2-|
|-0-0-0-3-0-3--0-0-0-3-0-3--0-0-0-3-0-3--0-0-0-3-0-5-2------------------|
|-0-0-0-3-0-3--0-0-0-3-0-3--0-0-0-3-0-3--0-0-0-3-0-5-2------------------|

1,3| 2|
|---------------------------------------|---------|------|
|---------------------------------------|---------|------|
|---------------------------------------|---------|------|
|-0-0-0-3-0-3--0-0-0-3-0-3--0-0-0-3-0-3-|-5-5-5-5-|-1--2-|
|-0-0-0-3-0-3--0-0-0-3-0-3--0-0-0-3-0-3-|-5-5-5-5-|-1--2-|
|-0-0-0-3-0-3--0-0-0-3-0-3--0-0-0-3-0-3-|-5-5-5-5-|-1--2-|

4|
|-------------------------------------|
|-------------------------------------|
|-------------------------------------|
|-3-3-3-0--2-3--0--2-3--0--2-3--0-3-5-|
|-3-3-3-0--2-3--0--2-3--0--2-3--0-3-5-|
|-3-3-3-0--2-3--0--2-3--0--2-3--0-3-5-|

1,3,5,7| 2,4,6| 8|
|---------------------|-------------|---------------|-----|
|---------------------|-------------|---------------|-----|
|---------------------|-------------|---------------|-----|
|-0-0-0-3-0-3--0--0-0-|-3-0-/10-9-0-|-1-0-0-/5--5-6-|-5-5-|
|-0-0-0-3-0-3--0--0-0-|-3-0-/10-9-0-|-1-0-0-/5--5-6-|-5-5-|
|-0-0-0-3-0-3--0--0-0-|-3-0-/10-9-0-|-1-0-0-/5--5-6-|-5-5-|

Middle 8

|-------------------------------------------------------------------------|
|-------------------------------------------------------------------------|
|-------------------------------------------------------------------------|
|-5~~-/7-7-7-7-7-7-0--0-0-0-0-0-1-3-3-3-3-3-3-3-3-3-3-3-3-/10-10-10-10-10-|
|-5~~-/7-7-7-7-7-7-0--0-0-0-0-0-1-3-3-3-3-3-3-3-3-3-3-3-3-/10-10-10-10-10-|
|-5~~-/7-7-7-7-7-7-0--0-0-0-0-0-1-3-3-3-3-3-3-3-3-3-3-3-3-/10-10-10-10-10-|
Play x 2

|--------------------------------------|
|--------------------------------------|
|--------------------------------------|
|-10-10-10-10-10-10-10-8-8-8-8-8-8-0-0-|
|-10-10-10-10-10-10-10-8-8-8-8-8-8-0-0-|
|-10-10-10-10-10-10-10-8-8-8-8-8-8-0-0-|

Outro

|---------------------------|-------------------------------|-----------|
|---------------------------|-------------------------------|-------0~~-|
|---------------------------|-------------------------------|-------0~~-|
|-5~~-/7-7-7-7-7-7-0--0-0-0-|-0-0-1-3-3-3-3-3-3-3-3-3-3-3-3-|-3-3-3-3~~-|
|-5~~-/7-7-7-7-7-7-0--0-0-0-|-0-0-1-3-3-3-3-3-3-3-3-3-3-3-3-|-3-3-3-3~~-|
|-5~~-/7-7-7-7-7-7-0--0-0-0-|-0-0-1-3-3-3-3-3-3-3-3-3-3-3-3-|-3-3-3-3~~-|
| Play x 4 |

And That's It.




Ваше мнение



Капча