-----------------------------------------------------------------------------
SINATRA - Helmet
-----------------------------------------------------------------------------

Tabbed by an17nin17
Email - [email protected]

Drop D Tuning – D, A, D, G, B, E

Intro

|--------|-3-3-3-3-3-3-3-3-3-3-3-3-3-3-3-3-|
|--------|-3-3-3-3-3-3-3-3-3-3-3-3-3-3-3-3-|
|--------|-0-0-0-0-0-0-0-0-0-0-0-0-0-0-0-0-|
|-~~-|-0-0-0-0-0-0-0-0-0-0-0-0-0-0-0-0-|
|-~~-|---------------------------------|
|-~~-|---------------------------------|
| Play x 2

Chorus

|---------------------------------3-|
|---------------------------------3-|
|---------------------------------0-|
|-1-1-0-x-x-1-0---0-1-1-0-x-x-1-0-0-|
|-1-1-0-x-x-1-0---0-1-1-0-x-x-1-0---|
|-1-1-0-x-x-1-0---0-1-1-0-x-x-1-0---|
Play x 4

Post – Chorus

|-3-3-3-3-3-3-3-3-3-3-3-3-3-3-3-3-|-2-2-2-2-2-2-2-2-2-2-2-2-2-2-2-2-|
|-3-3-3-3-3-3-3-3-3-3-3-3-3-3-3-3-|-2-2-2-2-2-2-2-2-2-2-2-2-2-2-2-2-|
|-0-0-0-0-0-0-0-0-0-0-0-0-0-0-0-0-|-0-0-0-0-0-0-0-0-0-0-0-0-0-0-0-0-|
|-0-0-0-0-0-0-0-0-0-0-0-0-0-0-0-0-|-0-0-0-0-0-0-0-0-0-0-0-0-0-0-0-0-|
|---------------------------------|---------------------------------|
|---------------------------------|---------------------------------|
Play x 2 | Play x 2

|-2-2-2-2-2-2-2-2-2-2-2-2-2-2-2-2-/18-18-18-18-18-18-18-18-18-18-18-|
|-2-2-2-2-2-2-2-2-2-2-2-2-2-2-2-2-/17-17-17-17-17-17-17-17-17-17-17-|
|-0-0-0-0-0-0-0-0-0-0-0-0-0-0-0-0--0--0--0--0--0--0--0--0--0--0--0--|
|-1-1-1-1-1-1-1-1-1-1-1-1-1-1-1-1--0--0--0--0--0--0--0--0--0--0--0--|
|-------------------------------------------------------------------|
|-------------------------------------------------------------------|

Middle 8

|-11111111-11-11111111-11-11111111-11-11111111-11-8-8-8-8--8--8-8-8-8-|
|-11111111-11-11111111-11-11111111-11-11111111-11-8-8-8-8--8--8-8-8-8-|
|-10101010-10-10101010-10-10101010-10-10101010-10-7-7-7-7--7--7-7-7-7-|
|-8-8-8-8--8--8-8-8-8--8--8-8-8-8--8--8-8-8-8--8--5-5-5-5--5--5-5-5-5-|
|-8-8-8-8--8--8-8-8-8--8--8-8-8-8--8--8-8-8-8--8--5-5-5-5--5--5-5-5-5-|
|-8-8-8-8--8--8-8-8-8--8--8-8-8-8--8--8-8-8-8--8--5-5-5-5--5--5-5-5-5-|
Play x 3

|-8--8-8-8-8--8--8-8-8-8--8-|-3-3-3-3--3--3-3-3-3--4--4-4-4-4--4--4-4-4-4-|
|-8--8-8-8-8--8--8-8-8-8--8-|-3-3-3-3--3--3-3-3-3--4--4-4-4-4--4--4-4-4-4-|
|-7--7-7-7-7--7--7-7-7-7--7-|-2-2-2-2--2--2-2-2-2--3--3-3-3-3--3--3-3-3-3-|
|-5--5-5-5-5--5--5-5-5-5--5-|-0-0-0-0--0--0-0-0-0--1--1-1-1-1--1--1-1-1-1-|
|-5--5-5-5-5--5--5-5-5-5--5-|-0-0-0-0--0--0-0-0-0--1--1-1-1-1--1--1-1-1-1-|
|-5--5-5-5-5--5--5-5-5-5--5-|-0-0-0-0--0--0-0-0-0--1--1-1-1-1--1--1-1-1-1-|
| Play x 4

|-3-3-3-3-3-3-3-3-3-3-3-3-3-3-3-3-|
|-3-3-3-3-3-3-3-3-3-3-3-3-3-3-3-3-|
|-0-0-0-0-0-0-0-0-0-0-0-0-0-0-0-0-|
|-0-0-0-0-0-0-0-0-0-0-0-0-0-0-0-0-|
|---------------------------------|
|---------------------------------|
Play x 4

|---------------------------------3-|
|---------------------------------3-|
|---------------------------------0-|
|-1-1-0-x-x-1-0---0-1-1-0-x-x-1-0-0-|
|-1-1-0-x-x-1-0---0-1-1-0-x-x-1-0---|
|-1-1-0-x-x-1-0---0-1-1-0-x-x-1-0---|
Play x 6

|-3-3-3-3-3-3-3-3-3-3-3-3-3-3-3-3-|-2-2-2-2-2-2-2-2-2-2-2-2-2-2-2-2-|
|-3-3-3-3-3-3-3-3-3-3-3-3-3-3-3-3-|-2-2-2-2-2-2-2-2-2-2-2-2-2-2-2-2-|
|-0-0-0-0-0-0-0-0-0-0-0-0-0-0-0-0-|-0-0-0-0-0-0-0-0-0-0-0-0-0-0-0-0-|
|-0-0-0-0-0-0-0-0-0-0-0-0-0-0-0-0-|-0-0-0-0-0-0-0-0-0-0-0-0-0-0-0-0-|
|---------------------------------|---------------------------------|
|---------------------------------|---------------------------------|

Play x 2 | Play x 2

Outro

|-3-3-3-3-3-3-3-3-3-3-3-3-3-3-3-3-|-----|
|-3-3-3-3-3-3-3-3-3-3-3-3-3-3-3-3-|-----|
|-0-0-0-0-0-0-0-0-0-0-0-0-0-0-0-0-|-----|
|-0-0-0-0-0-0-0-0-0-0-0-0-0-0-0-0-|-0~~-|
|-5-5-5-5-5-5-5-5-5-5-5-5-5-5-5-5-|-0~~-|
|---------------------------------|-0~~-|
Play x 6 |

And That's It

Contact me if you have any comments about this tab.




Ваше мнение



Капча