-----------------------------------------------------------------------------
SHIRLEY McCLANE - Helmet
-----------------------------------------------------------------------------

Tabbed by an17nin17
Email - [email protected]

Standard Tuning - E, A, D, G, B, E

Intro

|--------------------|
|--------------------|
|--------------------|
|-111111111111-111111|
|-111111111111-111111|
|-9-9-9-9-9-9--9-9-9-|
Play x 12

Verse

|-------------------------------------------------------------------------|
|-------------------------------------------------------------------------|
|-101010101010101010101010101010101010101010101010101010111111111111111111|
|-111111111111111111111111111111111111111111111111111111111111111111111111|
|-111111111111111111111111111111111111111111111111111111111111111111111111|
|-9-9-9-9-9-9-9-9-9-9-9-9-9-9-9-9-9-9-9-9-9-9-9-9-9-9-9-9-9-9-9-9-9-9-9-9-|
Play x 8

Chorus

|-----------------------------------|
|-----------------------------------|
|-7-7-7-7-7-7-7-7---7-7-7-7-7-7-7-7-|
|-8-8-8-8-8-8-8-8---8-8-8-8-8-8-8-8-|
|-8-8-8-8-8-8-8-8---8-8-8-8-8-8-8-8-|
|-6-6-6-6-6-6-6-6---6-6-6-6-6-6-6-6-|
Play x 4

|-------------------------------------------------------------------------|
|-------------------------------------------------------------------------|
|-101010101010101010101010101010101010101010101010101010111111111111111111|
|-111111111111111111111111111111111111111111111111111111111111111111111111|
|-111111111111111111111111111111111111111111111111111111111111111111111111|
|-9-9-9-9-9-9-9-9-9-9-9-9-9-9-9-9-9-9-9-9-9-9-9-9-9-9-9-9-9-9-9-9-9-9-9-9-|
Play x 8

|-----------------------------------|
|-----------------------------------|
|-7-7-7-7-7-7-7-7---7-7-7-7-7-7-7-7-|
|-8-8-8-8-8-8-8-8---8-8-8-8-8-8-8-8-|
|-8-8-8-8-8-8-8-8---8-8-8-8-8-8-8-8-|
|-6-6-6-6-6-6-6-6---6-6-6-6-6-6-6-6-|
Play x 4

Middle 8

|-----------------------------------------|-0-0-0-0-0-0-0-0-|
|-----------------------------------------|-0-0-0-0-0-0-0-0-|
|-----------------------------------------|-1-1-1-1-1-1-1-1-|
|-9-9-9-9-9-9-9-9-9-9-6-6-6-6-6-6-6-6-6-6-|-2-2-2-2-2-2-2-2-|
|-9-9-9-9-9-9-9-9-9-9-6-6-6-6-6-6-6-6-6-6-|-2-2-2-2-2-2-2-2-|
|-7-7-7-7-7-7-7-7-7-7-4-4-4-4-4-4-4-4-4-4-|-0-0-0-0-0-0-0-0-|
Play x 8 | Play x 24

Outro

|-------------------------------------------------|--------------|
|-------------------------------------------------|--------------|
|-------------------------------------------------|--------------|
|-4-4-4-4-4-4-4-4-4-4-4-4-4-4-4-4-4-4-4-4-4-4-4-4-|-4-4-4-4-4--6-|
|-4-4-4-4-4-4-4-4-4-4-4-4-4-4-4-4-4-4-4-4-4-4-4-4-|-4-4-4-4-4--6-|
|-2-2-2-2-2-2-2-2-2-2-2-2-2-2-2-2-2-2-2-2-2-2-2-2-|-2-2-2-2-2--4-|
Play x 20 | Play x 32

And That's It.

Contact me if you have any comments about this tab.




Ваше мнение



Капча