-----------------------------------------------------------------------------
SAM HELL - Helmet
-----------------------------------------------------------------------------

Tabbed by an17nin17
Email - [email protected]

6 - String Banjo Tuning - D, A, D, G, B, E

Intro

|---------------------|---------------------|
|---------------------|-------------8-------|
|---7---10^---7---5h7-|---7---10^-------5h7-|
|-0---0-----0---0-----|-0---0-----0---0-----|
|---------------------|---------------------|
|---------------------|---------------------|
Play x 3 |

Verse
1,2,3,5| 4,6|
|---------------------|---------------------|---------------------|
|---------------------|---------------------|-------------8-------|
|---7---10^---7---5h7-|---7---10^---7---5h7-|---7---10^-------5h7-|
|-0---0-----0---0-----|-0---0-----0---0-----|-0---0-----0---0-----|
|---------------------|---------------------|---------------------|
|---------------------|---------------------|---------------------|

7|
|-------------------------|
|-------------------------|
|---7---10^---10^---10^---|
|-0---0-----0-----0-----0-|
|-------------------------|
|-------------------------|

Chorus

|--------------|--------------|--------------|-----------------------|
|--------------|--------------|--------------|-----------------------|
|--------------|--------------|--------------|-----------------------|
|-/9-0-3^-0--x-|-/8-0-3^-0--x-|-/9-0-3^-0--x-|-/5-5-5-5-5-5-5-5-3^-0-|
|-/9-0-3^-0--x-|-/8-0-3^-0--x-|-/9-0-3^-0--x-|-/5-5-5-5-5-5-5-5-3^-0-|
|-/9-0-3^-0--x-|-/8-0-3^-0--x-|-/9-0-3^-0--x-|-/5-5-5-5-5-5-5-5-3^-0-|
Play x 8 | | Play x 7 | Play x 4

Middle 8
1,2|
|--------------------|-----------------------------------|
|--------------------|-----------------------------------|
|--------------------|-----------------------------------|
|-0--0-3^-0-3--4-5-0-|-/9-0-3^-0--0-3-0-3-4-5-0--/8-0-3^-|
|-0--0-3^-0-3--4-5-0-|-/9-0-3^-0--0-3-0-3-4-5-0--/8-0-3^-|
|-0--0-3^-0-3--4-5-0-|-/9-0-3^-0--0-3-0-3-4-5-0--/8-0-3^-|

|--------------------|
|--------------------|
|--------------------|
|-0--0-3^-0-3--4-5-0-|
|-0--0-3^-0-3--4-5-0-|
|-0--0-3^-0-3--4-5-0-|

Outro

1,2,3,5| 4|
|---------------------|---------------------|---------------------|
|---------------------|---------------------|-------------8-------|
|---7---10^---7---5h7-|---7---10^---7---5h7-|---7---10^-------5h7-|
|-0---0-----0---0-----|-0---0-----0---0-----|-0---0-----0---0-----|
|---------------------|---------------------|---------------------|
|---------------------|---------------------|---------------------|

6|
|-----------------------------------------------|
|-----------------------------------------------|
|-----7-------10^-------10^-------10^-------7~~-|
|-0-------0---------0---------0---------0---0~~-|
|-----------------------------------------------|
|-----------------------------------------------|

And That's It.




Ваше мнение



Капча