-----------------------------------------------------------------------------
RUMBLE - Helmet
-----------------------------------------------------------------------------

Tabbed by an17nin17
email - [email protected]

Standard Tuning - E, A, D, G, B, E

Note - Pick scrape every single note in this song to create the weird noise the guitar makes.

Intro/Verse

|---------------------------|
|---------------------------|
|---------------------------|
|---------------------------|
|-5-2-5-2-5-2-5-2-5-2-5-2-5-|
|-3-0-3-0-3-0-3-0-3-0-3-0-3-|
Play x 12

Chorus

|-------------------------------------------|
|-------------------------------------------|
|-------------------------------------------|
|-33333333---44444444---66666666---77777777-|
|-33333333---44444444---66666666---77777777-|
|-11111111---22222222---44444444---55555555-|

|---------------------------|
|---------------------------|
|---------------------------|
|---------------------------|
|-5-2-5-2-5-2-5-2-5-2-5-2-5-|
|-3-0-3-0-3-0-3-0-3-0-3-0-3-|
Play x 8

|-------------------------------------------|
|-------------------------------------------|
|-------------------------------------------|
|-33333333---44444444---66666666---77777777-|
|-33333333---44444444---66666666---77777777-|
|-11111111---22222222---44444444---55555555-|

Middle 8

|---------------------|---------------------|
|---------------------|---------------------|
|---------------------|---------------------|
|-6-6-6-6-6-6-6-6-5-5-|-7-/9-7-/9-7-/9-7-/9-|
|-6-6-6-6-6-6-6-6-5-5-|-7-/9-7-/9-7-/9-7-/9-|
|-4-4-4-4-4-4-4-4-3-3-|-5-/7-5-/7-5-/7-5-/7-|
Play x 8 | Play x 24

|---------------------------|
|---------------------------|
|---------------------------|
|---------------------------|
|-5-2-5-2-5-2-5-2-5-2-5-2-5-|
|-3-0-3-0-3-0-3-0-3-0-3-0-3-|
Play x 8

Outro

|-------------------------------------------|
|-------------------------------------------|
|-------------------------------------------|
|-33333333---44444444---66666666---77777777-|
|-33333333---44444444---66666666---77777777-|
|-11111111---22222222---44444444---55555555-|

And That's It.

Contact me if you have any coments about this tab.




Ваше мнение



Капча