Author/Artist: Helmet
Title: Rude
Album: Strap it On
Transcribed by: Mike
Drop D tuning
Got this from listening to the CD
I don't know exactly how many times to hit each chord
Here are the riffs to the song
------------------------------------------------------------------------------
------------------------------------------------------------------------------
------------------------------------------------------------------------------
------------------------------------------------------------------------------
-5-5-5-5-5-5-5-5-5-5-5-5-5-5-5-5-5-5-5-5-5-5-5-5-5-5-5-5-5-5-5-5-5-5----------
-5-5-5-5-5-5-5-5-5-5-5-5-5-5-5-5-5-5-5-5-5-5-5-5-5-5-5-5-5-5-5-5-5-5----------
------------------------------------------------------------------------------
------------------------------------------------------------------------------
------------------------------------------------------------------------------
------------------------------------------------------------------------------
--0-----0--0--0----0---0--2h3-------------------------------------------------
--0-----0--0--0----0---0--2h3-------------------------------------------------
Riff A
------------------------------------------------------------------------------
------------------------------------------------------------------------------
------------------------------------------------------------------------------
------------------------------------------------------------------------------
-5-5-5-5-5-5-5-5-5-5-5-5-5-5-5-5-5-5-5-5-4------------------------------------
-5-5-5-5-5-5-5-5-5-5-5-5-5-5-5-5-5-5-5-5-4------------------------------------
------------------------------------------------------------------------------
------------------------------------------------------------------------------
------------------------------------------------------------------------------
------------------------------------------------------------------------------
--5-5-5-5-5-4-4---------------------------------------------------------------
--5-5-5-5-5-4-4---------------------------------------------------------------
Play Riff A
Then a solo thing I didn't bother with




Ваше мнение



Капча