-----------------------------------------------------------------------------
ROLLO - Helmet
-----------------------------------------------------------------------------

Tabbed by an17nin17
Email - [email protected]

Drop D Tuning - D, A, D, G, B, E

Intro

|-------------------------------------|
|-------------------------------------|
|-------------------------------------|
|-0-0-10-10-10-0---0-0-10-10-10-0-6-0-|
|-0-0-10-10-10-0---0-0-10-10-10-0-6-0-|
|-0-0-10-10-10-0---0-0-10-10-10-0-6-0-|
Play x 8

Verse

|----------------------------------------|
|----------------------------------------|
|----------------------------------------|
|-0-0-0-3-3-3-5---0---0-0-3-3-3-5-3^-5-0-|
|-0-0-0-3-3-3-5---0---0-0-3-3-3-5-3^-5-0-|
|-0-0-0-3-3-3-5---0---0-0-3-3-3-5-3^-5-0-|
Play x 6

|-------------------------------------|
|-------------------------------------|
|-------------------------------------|
|-0-0-10-10-10-0---0-0-10-10-10-0-6-0-|
|-0-0-10-10-10-0---0-0-10-10-10-0-6-0-|
|-0-0-10-10-10-0---0-0-10-10-10-0-6-0-|
Play x 4

|----------------------------------------|
|----------------------------------------|
|----------------------------------------|
|-0-0-0-3-3-3-5---0---0-0-3-3-3-5-3^-5-0-|
|-0-0-0-3-3-3-5---0---0-0-3-3-3-5-3^-5-0-|
|-0-0-0-3-3-3-5---0---0-0-3-3-3-5-3^-5-0-|
Play x 4

Middle 8

|-------------------------------|-15-15-15-15-15-15/13-13-13-13-13-13-|
|-------------------------------|-x--x--x--x--x--x--x--x--x--x--x--x--|
|-10-10-10-10-10-10/5-5-5-5-5-5-|-12-12-12-12-12-12/10-10-10-10-10-10-|
|-x--x--x--x--x--x-/x-x-x-x-x-x-|-//-//-//-//-//-//-//-//-//-//-//-//-|
|-8--8--8--8--8--8-/3-3-3-3-3-3-|-------------------------------------|
|-/--/--/--/--/--/--/-/-/-/-/-/-|-------------------------------------|
Play x 2 | Play x 2

|-------------------|
|-------------------|
|-------------------|
|-3p0-3p0-0-0-0-0-0-|
|-3p0-3p0-0-0-0-0-0-|
|-3p0-3p0-0-0-0-0-0-|
Play x 16
PM...............

|-----------------------------------------------------------------------|
|-----------------------------------------------------------------------|
|-----------------------------------------------------------------------|
|-3p0-3p0-0-0-0-0-0-3p0-3p0-0-0-0-0-0-3p0-3p0-0-0-0-0-0-3-3-5-5-6-5-6-3-|
|-3p0-3p0-0-0-0-0-0-3p0-3p0-0-0-0-0-0-3p0-3p0-0-0-0-0-0-3-3-5-5-6-5-6-3-|
|-3p0-3p0-0-0-0-0-0-3p0-3p0-0-0-0-0-0-3p0-3p0-0-0-0-0-0-3-3-5-5-6-5-6-3-|
Play x 4

Outro

|-------------------------------|-15-15-15-15-15-15/13-13-13-13-13-13-|
|-------------------------------|-x--x--x--x--x--x--x--x--x--x--x--x--|
|-10-10-10-10-10-10-5-5-5-5-5-5-|-12-12-12-12-12-12/10-10-10-10-10-10-|
|-x--x--x--x--x--x--x-x-x-x-x-x-|-//-//-//-//-//-//-//-//-//-//-//-//-|
|-8--8--8--8--8--8-/3-3-3-3-3-3-|-------------------------------------|
|-/--/--/--/--/--/--/-/-/-/-/-/-|-------------------------------------|
Play x 2 |

|-17-17-17-17-17-17-^---^~~-----|
|-x--x--x--x--x--x----------0~~-|
|-14-14-14-14-14-14---------0~~-|
|-//-//-//-//-//-//---------10~-|
|---------------------------10~-|
|---------------------------10~-|

And Thats it.




Ваше мнение



Капча