-----------------------------------------------------------------------------
ROLE MODEL - Helmet
-----------------------------------------------------------------------------

Tabbed by an17nin17
Email - c.norman83ntlworld.com

Drop D Tuning - D, A, D, G, B, E

Intro
1,3,5,7| 2,4,6,8|
|-----------|---------|--------|
|-----------|---------|--------|
|-----------|---------|--------|
|-0-0-0-2-3-|-0-0-2-3-|-5---/8-|
|-0-0-0-2-3-|-0-0-2-3-|-5---/8-|
|-0-0-0-2-3-|-0-0-2-3-|-5---/8-|

Verse

No Guitar, Just Bass

Chorus

|----------------------|
|----------------------|
|----------------------|
|-0-0-0-2-3--0-0-0-2-3-|
|-0-0-0-2-3--0-0-0-2-3-|
|-0-0-0-2-3--0-0-0-2-3-|
Play x 4

Verse

|----------------------------------------------------|
|----------------------------------------------------|
|----------------------------------------------------|
|-|
|-|
|-|
| Guitar 1
|----------------------------------------------------|
|----------------------------------------------------|
|----------------------------------------------------|
|-0-0-0-2h3-3-0--0-0-2-3--0-0-0-2h3-3-0--0-0-5-3-2-3-|
|-0-0-0-2h3-3-0--0-0-2-3--0-0-0-2h3-3-0--0-0-5-3-2-3-|
|-0-0-0-2h3-3-0--0-0-2-3--0-0-0-2h3-3-0--0-0-5-3-2-3-|
Guitar 2
Play x 4

1,3,5,7| 2,4,6,8|
|-----------|---------|--------|
|-----------|---------|--------|
|-----------|---------|--------|
|-0-0-0-2-3-|-0-0-2-3-|-5---/8-|
|-0-0-0-2-3-|-0-0-2-3-|-5---/8-|
|-0-0-0-2-3-|-0-0-2-3-|-5---/8-|

Solo

|-------------------------|
|-------------------------|
|-------------------------|
|-3h5-5-5-5-5-5---5-0-3-5-|
|-3h5-5-5-5-5-5---5-0-3-5-|
|-3h5-5-5-5-5-5---5-0-3-5-|
| Guitar 1 - Play x 8
|-------------------------------------------------------------------------|
|-------------------------------------------------------------------------|
|---7---7-9^----------------9-7h9-9-7h9-9-7h9-9^-p7~~---7---7--9-10-12-14-|
|-8---8------8--8p7p0h5~~----------------------------8---8----/-//-//-//-|
|-------------------------------------------------------------------------|
|-------------------------------------------------------------------------|
Guitar 2
|--------------17-17^-|
|----------------------|
|-16-17-17-17----------|
|-//-//-//-//----------|
|----------------------|
|----------------------|

|---------------------|
|---------------------|
|---------------------|
|-2--2-0-2--2-2-2-3-0-|
|-2--2-0-2--2-2-2-3-0-|
|-2--2-0-2--2-2-2-3-0-|
Play x 4

|-------------------------|
|-------------------------|
|-------------------------|
|-3h5-5-5-5-5-5---5-0-3-5-|
|-3h5-5-5-5-5-5---5-0-3-5-|
|-3h5-5-5-5-5-5---5-0-3-5-|
| Guitar 1 - Play x 8
|----------------------------------------------------------------------|
|----15----15-17^------------------------------------------------------|
|-15----15--------15~~-15p14p0h12~~-12h14-0-0-12h14-10~~-10p7-0-10p7-0-|
|----------------------------------------------------------------------|
|----------------------------------------------------------------------|
|----------------------------------------------------------------------|
Guitar 2
|------------------------------------------19-21-23^--|-----|
|---------15----18p15-15-15----17-18-20-22-//-//-//----|-0~~-|
|-10---15----15-------------15-//-//-//-//-------------|-0~~-|
|------------------------------------------------------|-0~~-|
|------------------------------------------------------|-----|
|------------------------------------------------------|-----|

Outro
1 - 8,9,11,13,15|10,12,14,16|
|-----------|---------|--------|-----------------------|
|-----------|---------|--------|-----------------------|
|-----------|---------|--------|-----------------------|
|-0-0-0-2-3-|-0-0-2-3-|-5---/8-|-0-2-2-2-2-2-2-3-0-2~~-|
|-0-0-0-2-3-|-0-0-2-3-|-5---/8-|-0-2-2-2-2-2-2-3-0-2~~-|
|-0-0-0-2-3-|-0-0-2-3-|-5---/8-|-0-2-2-2-2-2-2-3-0-2~~-|
Guitar 1

|---------------------------------------------------------------------|
|---------5-----0-0-0-0-0-0-0-0-0-0-0-0-0-0-0-0-0-0-0-0-0-0-0-0-0-0-/-|
|-5~~---4---5---0-0-0-0-0-0-0-0-0-0-0-0-0-0-0-0-0-0-0-0-0-0-0-0-0-0-/-|
|---------------4-4-4-4-4-4-4-4-1-1-1-1-1-1-1-1-4-4-4-4-4-4-4-4-3-3-/-|
|---------------/-/-/-/-/-/-/-/-/-/-/-/-/-/-/-/-/-/-/-/-/-/-/-/-/-/---|
|---------------------------------------------------------------------|
Guitar 2 (enters when guitar plays outro for 9th time)

|------------------------------------------------------17-18-19-20-19-|
|-20p18p0-20p18p0-20p18p0-20p18p0-15^-11~~-13p11-13p11-//-//-//-//-//-|
|-//-//-/-//-//-/-//-//-/-//-//-/-------------------------------------|
|---------------------------------------------------------------------|
|---------------------------------------------------------------------|
|---------------------------------------------------------------------|

|-18-17--20--------------------|
|--------------15^-15^-15^-15^~~-|
|--------------------------------|
|--------------------------------|
|--------------------------------|
|--------------------------------|

And That’s It.

Contact me if you have any comments about this tab.




Ваше мнение



Капча