-----------------------------------------------------------------------------
REPETITION - Helmet
-----------------------------------------------------------------------------

Tabbed by an17nin17
Email - [email protected]

Drop D Tuning – D, A, D, G, B, E

Intro

|-----------|----------------|
|-0-0-0-0-0-|----------------|
|-0-0-0-0-0-|----------------|
|-5-5-5-5-5-|-5-5-2-0--0-0-2-|
|-5-5-5-5-5-|-5-5-2-0--0-0-2-|
|-5-5-5-5-5-|-5-5-2-0--0-0-2-|
| Play x 12
Verse

|-----------------------------------------|
|-----------------------------------------|
|-----------------------------------------|
|-0-2--2-2-0-2--2-2-0-2--2-2-0-2-xxxx-2-3-|
|-0-2--2-2-0-2--2-2-0-2--2-2-0-2-xxxx-2-3-|
|-0-2--2-2-0-2--2-2-0-2--2-2-0-2-xxxx-2-3-|
Play x 6

Chorus

|----------------|
|----------------|
|----------------|
|-5-5-2-0--0-0-2-|
|-5-5-2-0--0-0-2-|
|-5-5-2-0--0-0-2-|
Play x 8

|-----------------------------------------|
|-----------------------------------------|
|-----------------------------------------|
|-0-2--2-2-0-2--2-2-0-2--2-2-0-2-xxxx-2-3-|
|-0-2--2-2-0-2--2-2-0-2--2-2-0-2-xxxx-2-3-|
|-0-2--2-2-0-2--2-2-0-2--2-2-0-2-xxxx-2-3-|
Play x 6

|----------------|
|----------------|
|----------------|
|-5-5-2-0--0-0-2-|
|-5-5-2-0--0-0-2-|
|-5-5-2-0--0-0-2-|
Play x 8

Middle 8

|---------------------------------------------------|----|
|---------------------------------------------------|----|
|---------------------------------------------------|----|
|-0-10-12-12---0-10-12-12---0-10-12-12---0-10-12-12-|-14-|
|-0-10-12-12---0-10-12-12---0-10-12-12---0-10-12-12-|-14-|
|-0-10-12-12---0-10-12-12---0-10-12-12---0-10-12-12-|-14-|
Play x 2 |

Solo

|-----------------------------------------|
|-----------------------------------------|
|-----------------------------------------|
|-0-2--2-2-0-2--2-2-0-2--2-2-0-2-xxxx-2-3-|
|-0-2--2-2-0-2--2-2-0-2--2-2-0-2-xxxx-2-3-|
|-0-2--2-2-0-2--2-2-0-2--2-2-0-2-xxxx-2-3-|
Play x 6

Outro

|----------------|---------------|
|----------------|---------------|
|----------------|---------------|
|-5-5-2-0--0-0-2-|-10-12-0~~---0-|
|-5-5-2-0--0-0-2-|-10-12-0~~---0-|
|-5-5-2-0--0-0-2-|-10-12-0~~---0-|
Play x 8 |

And Thats it.

Contact me if you have any comments about this tab.




Ваше мнение



Капча