-----------------------------------------------------------------------------
RENOVATION - Helmet
-----------------------------------------------------------------------------

Tabbed by an17nin17
Email - [email protected]

Drop D Tuning

Intro/Verse

|------|---------------------|---------------|--------------------------|
|-BASS-|---------------------|-0-------------|--------------------------|
|------|---------------------|-0-------------|--------------------------|
|-ONLY-|-5--3-0---3--5-5-3-0-|-0-5-3-0-3-5-0-|-5-5-3-0-3h5-0-5-5-3-0--3-|
|------|-5--3-0---3--5-5-3-0-|---5-3-0-3-5-0-|-5-5-3-0-3h5-0-5-5-3-0--3-|
|------|-5--3-0---3--5-5-3-0-|---5-3-0-3-5-0-|-5-5-3-0-3h5-0-5-5-3-0--3-|
| Play x 5 | Play x 6 | Play x 4

Chorus
1,2,3| 4|
|-----------------|--------------|-------------------------------------|
|-----------------|--------------|-------------------------------------|
|-----------------|--------------|-------------------------------------|
|-5-5-3-0-3h5-0-2-|-2-2-3--3-3-5-|-0-2-0-3-3-3-0-2-0-3-3-3-0-2-0-3-3-3-|
|-5-5-3-0-3h5-0-2-|-2-2-3--3-3-5-|-0-2-0-3-3-3-0-2-0-3-3-3-0-2-0-3-3-3-|
|-5-5-3-0-3h5-0-2-|-2-2-3--3-3-5-|-0-2-0-3-3-3-0-2-0-3-3-3-0-2-0-3-3-3-|
Play x 3

|--------------------------|
|--------------------------|
|--------------------------|
|-5-5-3-0-3h5-0-5-5-3-0--3-|
|-5-5-3-0-3h5-0-5-5-3-0--3-|
|-5-5-3-0-3h5-0-5-5-3-0--3-|
Play x 4

1,2,3| 4|
|-----------------|--------------|-------------------------------------|
|-----------------|--------------|-------------------------------------|
|-----------------|--------------|-------------------------------------|
|-5-5-3-0-3h5-0-2-|-2-2-3--3-3-5-|-0-2-0-3-3-3-0-2-0-3-3-3-0-2-0-3-3-3-|
|-5-5-3-0-3h5-0-2-|-2-2-3--3-3-5-|-0-2-0-3-3-3-0-2-0-3-3-3-0-2-0-3-3-3-|
|-5-5-3-0-3h5-0-2-|-2-2-3--3-3-5-|-0-2-0-3-3-3-0-2-0-3-3-3-0-2-0-3-3-3-|
| Play x 3

Solo

|--------------|--------------|--------------|
|--------------|--------------|--------------|
|--------------|--------------|--------------|
|-0-0--0-0-0-3-|-0-0--0-0-0-3-|-0-0--0-0-0-3-|
|-0-0--0-0-0-3-|-0-0--0-0-0-3-|-0-0--0-0-0-3-|
|-0-0--0-0-0-3-|-0-0--0-0-0-3-|-0-0--0-0-0-3-|
| Guitar 1
|--------------|--------------|--------------|
|--------------|--------------|--------------|
|-9^-7~~~~~~~~-|-9^-7-9~~~~~~-|-9^-7-5-4-5-/-|
|--------------|--------------|--------------|
|--------------|--------------|--------------|
|--------------|--------------|--------------|
Guitar 2

|----------------|
|----------------|
|----------------|
|-5--5-3-0-3h5-0-|
|-5--5-3-0-3h5-0-|
|-5--5-3-0-3h5-0-|
Play x 4

|----------------|----------------|----------------|----------------|
|----------------|----------------|----------------|----------------|
|----------------|----------------|----------------|----------------|
|-5--5-3-0-3h5-0-|-5--5-3-0-3h5-0-|-5--5-3-0-3h5-0-|-5--5-3-0-3h5-0-|
|-5--5-3-0-3h5-0-|-5--5-3-0-3h5-0-|-5--5-3-0-3h5-0-|-5--5-3-0-3h5-0-|
|-5--5-3-0-3h5-0-|-5--5-3-0-3h5-0-|-5--5-3-0-3h5-0-|-5--5-3-0-3h5-0-|
| Guitar 1
|----------------|----------------|----------------|----------------|
|----------------|----------------|----------------|----------------|
|-16-16-16-16-16-|-16-16-16-16-16-|-16-16-16-16-16-|-16-16-16-16-16-|
|-//-//-//-//-//-|-//-//-//-//-//-|-//-//-//-//-//-|-//-//-//-//-//-|
|----------------|----------------|----------------|----------------|
|----------------|----------------|----------------|----------------|
Guitar 2

|----------------|----------------|----------------|----------------|
|----------------|----------------|----------------|----------------|
|----------------|----------------|----------------|----------------|
|-5--5-3-0-3h5-0-|-5--5-3-0-3h5-0-|-5--5-3-0-3h5-0-|-5--5-3-0-3h5-0-|
|-5--5-3-0-3h5-0-|-5--5-3-0-3h5-0-|-5--5-3-0-3h5-0-|-5--5-3-0-3h5-0-|
|-5--5-3-0-3h5-0-|-5--5-3-0-3h5-0-|-5--5-3-0-3h5-0-|-5--5-3-0-3h5-0-|
| Guitar 1
|----------------|----------------|----------------|-19^-19^-19^-19-|
|----------------|----------------|----------------|-//--//--//--//-|
|-16-17-16-12-12-|-10-10-9-9--7-7-|-5-5--4-4--5--5-|----------------|
|-//-//-//-//-//-|-//-//-/-/--/-/-|-/-/--/-/--/--/-|----------------|
|----------------|----------------|----------------|----------------|
|----------------|----------------|----------------|----------------|
Guitar 2

|----------------|----------------|----------------|----------------|
|----------------|----------------|----------------|----------------|
|----------------|----------------|----------------|----------------|
|-5--5-3-0-3h5-0-|-5--5-3-0-3h5-0-|-5--5-3-0-3h5-0-|-5--5-3-0-3h5-0-|
|-5--5-3-0-3h5-0-|-5--5-3-0-3h5-0-|-5--5-3-0-3h5-0-|-5--5-3-0-3h5-0-|
|-5--5-3-0-3h5-0-|-5--5-3-0-3h5-0-|-5--5-3-0-3h5-0-|-5--5-3-0-3h5-0-|
| Guitar 1
|-19^-19^-19^-19-|-19^-19^-19^-19-|-19^-19^-19^-19-|-19-19-19-19-19-|
|-//--//--//--//-|-//--//--//--//-|-//--//--//--//-|-//-//-//-//-//-|
|----------------|----------------|----------------|----------------|
|----------------|----------------|----------------|----------------|
|----------------|----------------|----------------|----------------|
|----------------|----------------|----------------|----------------|
Guitar 2

1,2,3| 4|
|-----------------|--------------|-------------------------------------|
|-----------------|--------------|-------------------------------------|
|-----------------|--------------|-------------------------------------|
|-5-5-3-0-3h5-0-2-|-2-2-3--3-3-5-|-0-2-0-3-3-3-0-2-0-3-3-3-0-2-0-3-3-3-|
|-5-5-3-0-3h5-0-2-|-2-2-3--3-3-5-|-0-2-0-3-3-3-0-2-0-3-3-3-0-2-0-3-3-3-|
|-5-5-3-0-3h5-0-2-|-2-2-3--3-3-5-|-0-2-0-3-3-3-0-2-0-3-3-3-0-2-0-3-3-3-|
| Play x 3

Outro
1,2,3| 4|
|-----------------|--------------|-------------|---------------|
|-----------------|--------------|-------------|-0-------------|
|-----------------|--------------|-------------|-0-------------|
|-5-5-3-0-3h5-0-2-|-2-2-3--3-3-5-|-0-2-0-3-3-3-|-0-0-2-0-3-3-3-|
|-5-5-3-0-3h5-0-2-|-2-2-3--3-3-5-|-0-2-0-3-3-3-|---0-2-0-3-3-3-|
|-5-5-3-0-3h5-0-2-|-2-2-3--3-3-5-|-0-2-0-3-3-3-|---0-2-0-3-3-3-|
| Play x 3 | Play x 7

And That's It.




Ваше мнение



Капча