-----------------------------------------------------------------------------
PURE - Helmet
-----------------------------------------------------------------------------

Tabbed by an17nin17
Email - [email protected]

Drop D Tuning - D, A, D, G, B, E

Intro

|------|-------------------------------|
|------|-------------------------------|
|-FADE-|-------------------------------|
|------|-4---4---4---4---4---4-4-4-0-0-|
|--IN--|-4---4---4---4---4---4-4-4-0-0-|
|------|-4---4---4---4---4---4-4-4-0-0-|
| Play x 2

Verse

|------------------|------------------|------------------|--------------|
|------------------|------------------|------------------|--------------|
|------------------|------------------|------------------|--------------|
|-4---4---4-/7-0-0-|-4-4-4---4-/7-0-0-|-4---4---4-/7-0-0-|-4~~---/7-0-0-|
|-4---4---4-/7-0-0-|-4-4-4---4-/7-0-0-|-4---4---4-/7-0-0-|-4~~---/7-0-0-|
|-4---4---4-/7-0-0-|-4-4-4---4-/7-0-0-|-4---4---4-/7-0-0-|-4~~---/7-0-0-|
Play x 11 | Play x 6 | Play x 12 | Play x 7

Chorus

|-----------------------------------------------------------------------|
|-----------------------------------------------------------------------|
|-----------------------------------------------------------------------|
|-11-11-11-11-11-11-11-11-11-11-11-11-11-11-9-9-9-9-9-9-9-9-9-9-9-9-9-9-|
|-11-11-11-11-11-11-11-11-11-11-11-11-11-11-9-9-9-9-9-9-9-9-9-9-9-9-9-9-|
|-11-11-11-11-11-11-11-11-11-11-11-11-11-11-9-9-9-9-9-9-9-9-9-9-9-9-9-9-|
Play x 2

Middle 8
1|
|---------------------------------------|-----------------------------|
|---------------------------------------|-----------------------------|
|---------------------------------------|-----------------------------|
|-4~~-4-4-5---5-5-5-6-6-6-6-6-6-6-6-7~~-|-7-7-7-7-7-7-7-9-9-9-9-9-9-9-|
|-4~~-4-4-5---5-5-5-6-6-6-6-6-6-6-6-7~~-|-7-7-7-7-7-7-7-9-9-9-9-9-9-9-|
|-4~~-4-4-5---5-5-5-6-6-6-6-6-6-6-6-7~~-|-7-7-7-7-7-7-7-9-9-9-9-9-9-9-|

2|
|---------------|-----------------|-----|
|---------------|-----------------|-----|
|---------------|-----------------|-----|
|-7-7-2---2-2-3-|-0-0-0-2-2-2-2-3-|-4~~-|
|-7-7-2---2-2-3-|-0-0-0-2-2-2-2-3-|-4~~-|
|-7-7-2---2-2-3-|-0-0-0-2-2-2-2-3-|-4~~-|
| Play x 3 |
Outro

|------------------|-----|
|------------------|-----|
|------------------|-----|
|-4-4-4---4-/7-0-0-|-0~~-|
|-4-4-4---4-/7-0-0-|-0~~-|
|-4-4-4---4-/7-0-0-|-0~~-|
Play x 12 |

And That's It.




Ваше мнение



Капча