-----------------------------------------------------------------------------
PRIMITIVE - Helmet
-----------------------------------------------------------------------------

Tabbed by an17nin17
Email - [email protected]

Standard Tuning - E, A, D, G, B, E

Intro

|------|-0~~-|
|-BASS-|-0~~-|
|------|-1~~-|
|------|-2~~-|
|-ONLY-|-2~~-|
|------|-0~~-|

Verse

|-0-----------------|
|-0-----------------|
|-1---4-4-6-6-3-3-4-|
|-2-----------------|
|-2-----------------|
|-0-----------------|
Play x 12

Chorus

|-----------------------------------------|
|-----------------------------------------|
|-----------------------------------4-4-5-|
|-7-7-7-7-7-7-7-7-7-7-7-5-5-5-4-4-4-4-4-5-|
|-7-7-7-7-7-7-7-7-7-7-7-5-5-5-4-4-4-2-2-3-|
|-5-5-5-5-5-5-5-5-5-5-5-3-3-3-2-2-2-------|

|-0-----------------|
|-0-----------------|
|-1---4-4-6-6-3-3-4-|
|-2-----------------|
|-2-----------------|
|-0-----------------|
Play x 12

|-----------------------------------------|
|-----------------------------------------|
|-----------------------------------4-4-5-|
|-7-7-7-7-7-7-7-7-7-7-7-5-5-5-4-4-4-4-4-5-|
|-7-7-7-7-7-7-7-7-7-7-7-5-5-5-4-4-4-2-2-3-|
|-5-5-5-5-5-5-5-5-5-5-5-3-3-3-2-2-2-------|

Middle 8

|-0~~-|-12~~---14~~---16~~-|-~~-|
|-0~~-|--------------------|-------|
|-1~~-|--------------------|-------|
|-2~~-|--------------------|-------|
|-2~~-|--------------------|-------|
|-0~~-|--------------------|-------|
| Play x 5 |

|-0-----------------|
|-0-----------------|
|-1---4-4-6-6-3-3-4-|
|-2-----------------|
|-2-----------------|
|-0-----------------|
Play x 8

Outro

|-----------------------------------------|
|-----------------------------------------|
|-----------------------------------4-4-5-|
|-7-7-7-7-7-7-7-7-7-7-7-5-5-5-4-4-4-4-4-5-|
|-7-7-7-7-7-7-7-7-7-7-7-5-5-5-4-4-4-2-2-3-|
|-5-5-5-5-5-5-5-5-5-5-5-3-3-3-2-2-2-------|

Contact me if you have any comments about this tab.




Ваше мнение



Капча