-----------------------------------------------------------------------------
PARIAH - Helmet
-----------------------------------------------------------------------------

Tabbed by an17nin17
Email - [email protected]

Drop D Tuning - D, A, D, G, B, E

Intro
| 1,3,5,7,9| 2,4,6,8,10|
|-------------------------------|-------------|-------------|-------------|
|-------------------------------|-------------|-------------|-------------|
|-------------------------------|-------------|-------------|-------------|
|-0-4-6-0-3-5-0-2-3-0-2-3-3---1-|-0-2-2-2-0-2-|-0-2-2-0-/10-|-0-2-2-0-5-6-|
|-0-4-6-0-3-5-0-2-3-0-2-3-3---1-|-0-2-2-2-0-2-|-0-2-2-0-/10-|-0-2-2-0-5-6-|
|-0-4-6-0-3-5-0-2-3-0-2-3-3---1-|-0-2-2-2-0-2-|-0-2-2-0-/10-|-0-2-2-0-5-6-|

Chorus
1,3,5| 2| 4|
|----------------------|--------|------|-----|
|----------------------|--------|------|-----|
|----------------------|--------|------|-----|
|-0-2-2-2-0-2--0-2-2-0-|-/10-10-|-10-6-|-7-6-|
|-0-2-2-2-0-2--0-2-2-0-|-/10-10-|-10-6-|-7-6-|
|-0-2-2-2-0-2--0-2-2-0-|-/10-10-|-10-6-|-7-6-|

Verse
1,3| 2,4|
|-----------------------------------|-------------|--------------|
|-----------------------------------|-------------|--------------|
|-----------------------------------|-------------|--------------|
|-0-2-2-2-2-0-0-2---0-2-2-2-2-0-0-2-|-3h4-x-1-1-2-|-3h4-x-/7-8-8-|
|-0-2-2-2-2-0-0-2---0-2-2-2-2-0-0-2-|-3h4-x-1-1-2-|-3h4-x-/7-8-8-|
|-0-2-2-2-2-0-0-2---0-2-2-2-2-0-0-2-|-3h4-x-1-1-2-|-3h4-x-/7-8-8-|

1,3,| 2,4|
|----------------------|--------|-----|
|----------------------|--------|-----|
|----------------------|--------|-----|
|-0-2-2-2-0-2--0-2-2-0-|-/10-10-|-7-6-|
|-0-2-2-2-0-2--0-2-2-0-|-/10-10-|-7-6-|
|-0-2-2-2-0-2--0-2-2-0-|-/10-10-|-7-6-|

Middle 8

|-------------------------|------------------------------|
|-------------------------|------------------------------|
|-------------------------|------------------------------|
|-7-6-5-5-5-5-5-6-6-6-6-6-|-0-2-2-2-0-2--0-2-0-2-0-2-0-0-|
|-7-6-5-5-5-5-5-6-6-6-6-6-|-0-2-2-2-0-2--0-2-0-2-0-2-0-0-|
|-7-6-5-5-5-5-5-6-6-6-6-6-|-0-2-2-2-0-2--0-2-0-2-0-2-0-0-|
| Play x 2

|-------------------------|------------------------------|
|-------------------------|------------------------------|
|-------------------------|------------------------------|
|-7-6-5-5-5-5-5-6-6-6-6-6-|-0-2-2-2-0-2--0-2-0-2-0-2-0-0-|
|-7-6-5-5-5-5-5-6-6-6-6-6-|-0-2-2-2-0-2--0-2-0-2-0-2-0-0-|
|-7-6-5-5-5-5-5-6-6-6-6-6-|-0-2-2-2-0-2--0-2-0-2-0-2-0-0-|
| Play x 2

|-------------------------|
|-------------------------|
|-------------------------|
|-7-6-5-5-5-5-5-6-6-6-6-6-|
|-7-6-5-5-5-5-5-6-6-6-6-6-|
|-7-6-5-5-5-5-5-6-6-6-6-6-|

Outro
1,3,5| 2,4|
|----------------------|--------|-----|
|----------------------|--------|-----|
|----------------------|--------|-----|
|-0-2-2-2-0-2--0-2-2-0-|-/10-10-|-7-6-|
|-0-2-2-2-0-2--0-2-2-0-|-/10-10-|-7-6-|
|-0-2-2-2-0-2--0-2-2-0-|-/10-10-|-7-6-|

And That's It.




Ваше мнение



Капча