-----------------------------------------------------------------------------
OVEN - Helmet
-----------------------------------------------------------------------------

Tabbed by an17nin17
email - [email protected]

Drop D Tuning - D, A, D, G, B, E

Intro
1| 2| 3|
|-----------------|---------|-----|---------|
|-----------------|---------|-----|---------|
|-----------------|---------|-----|---------|
|-0-0-0-0-0-0-0-0-|-0-7-0-7-|-0-7-|-0-7-0-6-|
|-0-0-0-0-0-0-0-0-|-0-7-0-7-|-0-7-|-0-7-0-6-|
|-0-0-0-0-0-0-0-0-|-0-7-0-7-|-0-7-|-0-7-0-6-|

Verse

|-----------------------|------------------------------|
|-----------------------|------------------------------|
|-----------------------|------------------------------|
|-0---0-0-6---0-0-0-7-0-|-0---0-0-6---0-0-0-0--0-0-0-0-|
|-0---0-0-6---0-0-0-7-0-|-0---0-0-6---0-0-0-0--0-0-0-0-|
|-0---0-0-6---0-0-0-7-0-|-0---0-0-6---0-0-0-0--0-0-0-0-|
Play x 2 |

Guitars Tacet

Bridge

|------------------------------------------------------------|
|------------------------------------------------------------|
|------------------------------------------------------------|
|-0--6--6--0-0--0--0-6-0-0--0-6--6--6--0-0-0-0-0-0-0-0-0-0-0-|
|-0--6--6--0-0--0--0-6-0-0--0-6--6--6--0-0-0-0-0-0-0-0-0-0-0-|
|-0--6--6--0-0--0--0-6-0-0--0-6--6--6--0-0-0-0-0-0-0-0-0-0-0-|

Outro
1| 2|
|--------------------------------|------------------|---------|
|--------------------------------|------------------|---------|
|--------------------------------|------------------|---------|
|-0---0--0-0-3-2-3-2-3-2-3--2--6-|-0-0-0-0--0-0-0-0-|-0-0-0-0-|
|-0---0--0-0-3-2-3-2-3-2-3--2--6-|-0-0-0-0--0-0-0-0-|-0-0-0-0-|
|-0---0--0-0-3-2-3-2-3-2-3--2--6-|-0-0-0-0--0-0-0-0-|-0-0-0-0-|

3|
|--------------------------------------------------------|
|--------------------------------------------------------|
|--------------------------------------------------------|
|-0-0-0-0-0-0-0-0-0-0-0--0-0-0-0-0-0-0-0-0-0-0-0-0-0-0-0-|
|-0-0-0-0-0-0-0-0-0-0-0--0-0-0-0-0-0-0-0-0-0-0-0-0-0-0-0-|
|-0-0-0-0-0-0-0-0-0-0-0--0-0-0-0-0-0-0-0-0-0-0-0-0-0-0-0-|

Contact me if you have any comments about this tab.




Ваше мнение



Капча