-----------------------------------------------------------------------------
NO NICKY NO - Helmet
-----------------------------------------------------------------------------

Tabbed by an17nin17
Email - [email protected]

Drop D Tuning - D, A, D, G, B, E

Intro

|--------------------|
|--------------------|
|--------------------|
|-------------0-2--3-|
|-----3p2-2h3-0-2--3-|
|-0-----------0-2--3-|
Play x 4

Verse

|------|-------------------|-------------|
|-BASS-|-------------------|-------------|
|------|-------------------|-------------|
|------|-------------------|-0-3h4-0-3h4-|
|-ONLY-|-3h4-3h4-3h4-3h4---|-0-3h4-0-3h4-|
|------|-----------------0-|-0-3h4-0-3h4-|
| Play x 12 | Play x 8

Chorus

|-------------------------------x/-----|
|-------------------------0~~---x/-----|
|-------------------------0~~---x/-----|
|-8-8-8-8-8-8-8-8-8-8-8-8-5~~------5~~-|
|-8-8-8-8-8-8-8-8-8-8-8-8-5~~------5~~-|
|-8-8-8-8-8-8-8-8-8-8-8-8-5~~------5~~-|

|--------------------|--------------------|
|--------------------|--------------------|
|--------------------|--------------------|
|-------------0-2--3-|-------------0-2--3-|
|-----3p2-2h3-0-2--3-|-----4p3-3h4-0-2--3-|
|-0-----------0-2--3-|-0-----------0-2--3-|
Play x 2 | Play x 2

Outro

|-------------------------------------------------------------|
|-------------------------------------------------------------|
|-------------------------------------------------------------|
|-3-3-3-3-3-3-3-3-3-3-5-5-5-5-5-5-5-5-5-5-2-2-2-2-2-2-2-2-2-2-|
|-3-3-3-3-3-3-3-3-3-3-5-5-5-5-5-5-5-5-5-5-2-2-2-2-2-2-2-2-2-2-|
|-3-3-3-3-3-3-3-3-3-3-5-5-5-5-5-5-5-5-5-5-2-2-2-2-2-2-2-2-2-2-|
Play x 2

|-------------|-----------------|-----|
|-------------|-----------------|-----|
|-------------|-----------------|-----|
|-2-2-2-2-2-2-|-8-8-8-8-8-8-8-8-|-0~~-|
|-2-2-2-2-2-2-|-8-8-8-8-8-8-8-8-|-0~~-|
|-2-2-2-2-2-2-|-8-8-8-8-8-8-8-8-|-0~~-|
Play x 2 | Play x 8 |

Contact me if you have any comments about this tab.




Ваше мнение



Капча