-----------------------------------------------------------------------------
MURDER - Helmet
-----------------------------------------------------------------------------

Tabbed by an17nin17
Email - [email protected]

Drop D Tuning – D, A, D, G, B, E

Intro

|-17-17-17-17-17-17-17-17-17-17-17-17-17-17-17-17-6-6-6-6-6-6-6-6-6-6-6-6-|
|-------------------------------------------------------------------------|
|-14-14-14-14-14-14-14-14-14-14-14-14-14-14-14-14-3-3-3-3-3-3-3-3-3-3-3-3-|
|-------------------------------------------------------------------------|
|-------------------------------------------------------------------------|
|-------------------------------------------------------------------------|
| Guitar 1
|-------------------------------------------------------------------------|
|-------------------------------------------------------------------------|
|-------------------------------------------------------------------------|
|-------------------------------------------------------------------------|
|-1-1-1-1-1-1-1-1-1-1-1-1-1-1-1-1-1-1-1-1-1-1-1-1-1-1-1-1-1-1-1-1-1-1-1-1-|
|-1-1-1-1-1-1-1-1-1-1-1-1-1-1-1-1-1-1-1-1-1-1-1-1-1-1-1-1-1-1-1-1-1-1-1-1-|
Guitar 2

|-6-6-6-6-6-6-6-6-6-6-6-6-6-6-|
|-----------------------------|
|-3-3-3-3-3-3-3-3-3-3-3-3-3-3-|
|-----------------------------|
|-----------------------------|
|-----------------------------|
| Guitar 1
|-----------------------------|
|-----------------------------|
|-----------------------------|
|-----------------------------|
|-1-1-1-1-1-1-1-1-1-1-1-1-1-1-|
|-1-1-1-1-1-1-1-1-1-1-1-1-1-1-|
Guitar 2

|-------------------------------------------------------------------------|
|-------------------------------------------------------------------------|
|-------------------------------------------------------------------------|
|-------------------------------------------------------------------------|
|-2-2-2-2-2-2-0-2-0-2-2-2-2-2-2-2-2-2-2-2-0-2-0-2-2-2-2-2-1-1-1-1-1-1-0-1-|
|-2-2-2-2-2-2-0-2-0-2-2-2-2-2-2-2-2-2-2-2-0-2-0-2-2-2-2-2-1-1-1-1-1-1-0-1-|
Play x 2

|-----------------------------------------|-17-17-17-17-17-17-17-17-17-17-|
|-----------------------------------------|-------------------------------|
|-----------------------------------------|-------------------------------|
|-----------------------------------------|-------------------------------|
|-0-1-1-1-1-1-1-1-1-1-1-1-0-1-0-1-1-1-1-1-|-------------------------------|
|-0-1-1-1-1-1-1-1-1-1-1-1-0-1-0-1-1-1-1-1-|-------------------------------|
| Play x 4

Verse

|-------------------------------------------------------------------------|
|-------------------------------------------------------------------------|
|-------------------------------------------------------------------------|
|-------------------------------------------------------------------------|
|-2-2-2-2-2-2-0-2-0-2-2-2-2-2-2-2-2-2-2-2-0-2-0-2-2-2-2-2-1-1-1-1-1-1-0-1-|
|-2-2-2-2-2-2-0-2-0-2-2-2-2-2-2-2-2-2-2-2-0-2-0-2-2-2-2-2-1-1-1-1-1-1-0-1-|
Play x 4

|-----------------------------------------|
|-----------------------------------------|
|-----------------------------------------|
|-----------------------------------------|
|-0-1-1-1-1-1-1-1-1-1-1-1-0-1-0-1-1-1-1-1-|
|-0-1-1-1-1-1-1-1-1-1-1-1-0-1-0-1-1-1-1-1-|

Chorus

|----------------------|
|----------------------|
|----------------------|
|-0-0--7-7-0-0--7--7-0-|
|-0-0--7-7-0-0--7--7-0-|
|-0-0--7-7-0-0--7--7-0-|
Play x 4

|-------------------------------------------------------------------------|
|-------------------------------------------------------------------------|
|-------------------------------------------------------------------------|
|-------------------------------------------------------------------------|
|-2-2-2-2-2-2-0-2-0-2-2-2-2-2-2-2-2-2-2-2-0-2-0-2-2-2-2-2-1-1-1-1-1-1-0-1-|
|-2-2-2-2-2-2-0-2-0-2-2-2-2-2-2-2-2-2-2-2-0-2-0-2-2-2-2-2-1-1-1-1-1-1-0-1-|
Play x 4

|-----------------------------------------|
|-----------------------------------------|
|-----------------------------------------|
|-----------------------------------------|
|-0-1-1-1-1-1-1-1-1-1-1-1-0-1-0-1-1-1-1-1-|
|-0-1-1-1-1-1-1-1-1-1-1-1-0-1-0-1-1-1-1-1-|

|----------------------|
|----------------------|
|----------------------|
|-0-0--7-7-0-0--7--7-0-|
|-0-0--7-7-0-0--7--7-0-|
|-0-0--7-7-0-0--7--7-0-|
Play x 4

Middle 8

|--------------------|-17-17-17-17-17-17-17-17-17-17-|
|--------------------|-------------------------------|
|--------------------|-------------------------------|
|-0---13---0---13-12-|-------------------------------|
|-0---13---0---13-12-|-------------------------------|
|-0---13---0---13-12-|-------------------------------|
Play x 4 | Play x 4

|-------------------------------------------------------------------------|
|-------------------------------------------------------------------------|
|-------------------------------------------------------------------------|
|-------------------------------------------------------------------------|
|-2-2-2-2-2-2-0-2-0-2-2-2-2-2-2-2-2-2-2-2-0-2-0-2-2-2-2-2-1-1-1-1-1-1-0-1-|
|-2-2-2-2-2-2-0-2-0-2-2-2-2-2-2-2-2-2-2-2-0-2-0-2-2-2-2-2-1-1-1-1-1-1-0-1-|
Play x 8

|-----------------------------------------|
|-----------------------------------------|
|-----------------------------------------|
|-----------------------------------------|
|-0-1-1-1-1-1-1-1-1-1-1-1-0-1-0-1-1-1-1-1-|
|-0-1-1-1-1-1-1-1-1-1-1-1-0-1-0-1-1-1-1-1-|

|----------------------|-----|
|----------------------|-----|
|----------------------|-----|
|-0-0--7-7-0-0--7--7-0-|-1~~-|
|-0-0--7-7-0-0--7--7-0-|-1~~-|
|-0-0--7-7-0-0--7--7-0-|-1~~-|
Play x 8

And That's It.

Contact me if you have any comments about this tab.


Ваше мнение



Капча