-----------------------------------------------------------------------------
LORD OF THIS WORLD - Helmet
-----------------------------------------------------------------------------

Tabbed by an17nin17
Email - [email protected]

Drop C# Tuning – C#, G#, C#, F#, A#, D#

Intro

|---------------------------------|
|---------------------------------|
|---------------------------------|
|-0---0-0-/10-9---10-12-7-6-7-7-7-|
|-0---0-0-/10-9---10-12-7-6-7-7-7-|
|-0---0-0-/10-9---10-12-7-6-7-7-7-|
Play x 5

Verse

|------------------------------------------|------------|
|------------------------------------------|------------|
|------------------------------------------|------------|
|-12-12-12-10-12---12-12-12-10-12---12-/15-|-7-6-5-/15^-|
|-12-12-12-10-12---12-12-12-10-12---12-/15-|-7-6-5-/15^-|
|-12-12-12-10-12---12-12-12-10-12---12-/15-|-7-6-5-/15^-|
Play x 5 |

|------------------------------------------|---------------|
|------------------------------------------|---------------|
|------------------------------------------|---------------|
|-12-12-12-10-12---12-12-12-10-12---12-/15-|-7-6-5-/15^-12-|
|-12-12-12-10-12---12-12-12-10-12---12-/15-|-7-6-5-/15^-12-|
|-12-12-12-10-12---12-12-12-10-12---12-/15-|-7-6-5-/15^-12-|
Play x 5 |

Pre – Solo

|-------------------------------------------------------|
|-------------------------------------------------------|
|-----------7^--------------------------7^--------------|
|---------------7h9--7--5-----------------7h9--7--5---|
|-5-6-7p5------------------5-----7p5------------------5-|
|---------9--------------------------9------------------|
Play x 2

Solo

|-----------------------------------------------------------------------|
|-----------------------------------------------------------------------|
|---------2-2-/5-5h7-7---(5)-7-7-7-7-7-7-7-7-7^-7--5h7-7-5--------------|
|-----3h5--------------------------------------------------7-/5-3---2-3-|
|-3h5-------------------------------------------------------------------|
|-----------------------------------------------------------------------|

|-----------------------------------------------------------------------|
|-----------------------------------------------------------------------|
|----------------2-2-/5-5h7-7-7-7-7-7-7^-7---5h7-7-5-/7-7-7-7-/10-10-10-|
|-2h3p2-2-3-3-/5--------------------------------------------------------|
|-----------------------------------------------------------------------|
|-----------------------------------------------------------------------|

|---------------------------10--------------------10----10-10-12-13-10--|
|--------------10-13-10-13^----13-10-----------------10-----------------|
|-10-/12-12-12-----------------------13-12-10-12^-----------------------|
|-----------------------------------------------------------------------|
|-----------------------------------------------------------------------|
|-----------------------------------------------------------------------|
|-12-13-10-12-13^-13^-13^-10--------10--------------------10--------10-|
|----------------------------10-13^----13-10-----------------10-13^----|
|--------------------------------------------13-12-10-12^--------------|
|----------------------------------------------------------------------|
|----------------------------------------------------------------------|
|----------------------------------------------------------------------|

|----------------10----10-13--13--13--13--13--|
|-13-10-------------13----16^-16^-16^-16^-16^-|
|-------12-10-12------------------------------|
|---------------------------------------------|
|---------------------------------------------|
|---------------------------------------------|

|---------------------------------|
|---------------------------------|
|---------------------------------|
|-0---0-0-/10-9---10-12-7-6-7-7-7-|
|-0---0-0-/10-9---10-12-7-6-7-7-7-|
|-0---0-0-/10-9---10-12-7-6-7-7-7-|
Play x 5

Outro

|-------------------------------------------------------------|
|-------------------------------------------------------------|
|---------------------------------------5~~-----------7~~-----|
|-7-7-7-7-7-----5-5-5-5-5-----7-7-7-7-7-----5-5-5-5-5-----0~~-|
|-7-7-7-7-7-----5-5-5-5-5-----7-7-7-7-7-----5-5-5-5-5-----0~~-|
|-7-7-7-7-7-----5-5-5-5-5-----7-7-7-7-7-----5-5-5-5-5-----0~~-|

And Thats it.

Contact me if you have any comments about this tab.




Ваше мнение



Капча