-----------------------------------------------------------------------------
IT'S EASY TO GET BORED - Helmet
-----------------------------------------------------------------------------

Tabbed by an17nin17
Email - [email protected]

Drop D Tuning - D, A, D, G, B, E

Intro

|----------------------------|
|----------------------------|
|----------------------------|
|-0-5-7--5h7-7--0-5-7--5h7-7-|
|-0-5-7--5h7-7--0-5-7--5h7-7-|
|-0-5-7--5h7-7--0-5-7--5h7-7-|
Play x 10

Verse

|----------------------------|
|----------------------------|
|----------------------------|
|-0h5-7--5h7-7--0h5-7--5h7-7-|
|-0h5-7--5h7-7--0h5-7--5h7-7-|
|-0h5-7--5h7-7--0h5-7--5h7-7-|
Play x 12

Chorus

|------------------------------|
|------------------------------|
|------------------------------|
|-3-3-3-3-3-3-3--0--0-0-1--1-1-|
|-3-3-3-3-3-3-3--0--0-0-1--1-1-|
|-3-3-3-3-3-3-3--0--0-0-1--1-1-|
Play x 4

|--------------|------------------------------------|--------------|
|--------------|------------------------------------|--------------|
|--------------|------------------------------------|--------------|
|-0h5-7--5h7-7-|-3-3-3-3-3-3-3-3-/8-8-8-8-8-8-8-8-8-|-0h5-7--5h7-7-|
|-0h5-7--5h7-7-|-3-3-3-3-3-3-3-3-/8-8-8-8-8-8-8-8-8-|-0h5-7--5h7-7-|
|-0h5-7--5h7-7-|-3-3-3-3-3-3-3-3-/8-8-8-8-8-8-8-8-8-|-0h5-7--5h7-7-|
Play x 24 | | Play x 4

|------------------------------------|
|------------------------------------|
|------------------------------------|
|-3-3-3-3-3-3-3-3-/8-8-8-8-8-8-8-8-8-|
|-3-3-3-3-3-3-3-3-/8-8-8-8-8-8-8-8-8-|
|-3-3-3-3-3-3-3-3-/8-8-8-8-8-8-8-8-8-|

Outro

|----------------------------|-----|
|----------------------------|-----|
|----------------------------|-----|
|-0h5-7--5h7-7--0h5-7--5h7-7-|-7~~-|
|-0h5-7--5h7-7--0h5-7--5h7-7-|-7~~-|
|-0h5-7--5h7-7--0h5-7--5h7-7-|-7~~-|
Play x 26 |

Contact me if you have any comments about this tab.




Ваше мнение



Капча