-----------------------------------------------------------------------------
IRONHEAD - Helmet
-----------------------------------------------------------------------------

Tabbed by an17nin17
Email - [email protected]

Drop D Tuning – D, A, D, G, B, E

Intro
1,2,3,4,5,6,7|
|---------------------------|------------|-----------|---------------|
|---------------------------|------------|-----------|---------------|
|---------------------------|------------|-----------|---------------|
|-7-8-7-0--7-8-7-0--7-0-7-0-|-3p0--x-3/5-|-x-2/3-2/3-|-2-2--2-2--2-2-|
|-7-8-7-0--7-8-7-0--7-0-7-0-|-3p0--x-3/5-|-x-2/3-2/3-|-2-2--2-2--2-2-|
|-7-8-7-0--7-8-7-0--7-0-7-0-|-3p0--x-3/5-|-x-2/3-2/3-|-2-2--2-2--2-2-|

8|
|-----------------------------|
|-----------------------------|
|-----------------------------|
|-2-2--2-2--2-2--2-2--2-3-4~~-|
|-2-2--2-2--2-2--2-2--2-3-4~~-|
|-2-2--2-2--2-2--2-2--2-3-4~~-|

Verse

|-----------------------|
|-----------------------|
|-----------------------|
|-3p0--x-3/5--x-2/3-2/3-|
|-3p0--x-3/5--x-2/3-2/3-|
|-3p0--x-3/5--x-2/3-2/3-|
Play x 8

Chorus

|------------------------------------|
|------------------------------------|
|------------------------------------|
|-3-0-0-3-0-0-3h5-5-0--3-0-0-7-8-7-0-|
|-3-0-0-3-0-0-3h5-5-0--3-0-0-7-8-7-0-|
|-3-0-0-3-0-0-3h5-5-0--3-0-0-7-8-7-0-|
Play x 4

|-----------------------|
|-----------------------|
|-----------------------|
|-3p0--x-3/5--x-2/3-2/3-|
|-3p0--x-3/5--x-2/3-2/3-|
|-3p0--x-3/5--x-2/3-2/3-|
Play x 8

|------------------------------------|------------------|
|------------------------------------|------------------|
|------------------------------------|------------------|
|-3-0-0-3-0-0-3h5-5-0--3-0-0-7-8-7-0-|-7-8-7-0--7-0-7-0-|
|-3-0-0-3-0-0-3h5-5-0--3-0-0-7-8-7-0-|-7-8-7-0--7-0-7-0-|
|-3-0-0-3-0-0-3h5-5-0--3-0-0-7-8-7-0-|-7-8-7-0--7-0-7-0-|
Play x 4 |

Middle 8
1,3| 2,4|
|-----------------------------|---------|---------|
|-----------------------------|---------|---------|
|-----------------------------|---------|---------|
|-7-7-7-7-7-7-7-7-7-7-7-7-7-7-|-7-0-0-0-|-7-8-7-0-|
|-7-7-7-7-7-7-7-7-7-7-7-7-7-7-|-7-0-0-0-|-7-8-7-0-|
|-7-7-7-7-7-7-7-7-7-7-7-7-7-7-|-7-0-0-0-|-7-8-7-0-|

1,2|
|----------------------|---------|
|--------0--0-0-0--0-0-|---------|
|--------0--0-0-0--0-0-|---------|
|-0--0-0-7--7-7-6--6-6-|-3-0-3h5-|
|-0--0-0-7--7-7-6--6-6-|-3-0-3h5-|
|-0--0-0-7--7-7-6--6-6-|-3-0-3h5-|
Play x 3

Solo

|--------------------------------------------------------|
|--------------------------------------------------------|
|--------------------------------------------------------|
|-3p0--x-3h5--x-3p0--x-3h5--x-3p0--x-3h5--x-3p0--x-3h5-6-|
|-3p0--x-3h5--x-3p0--x-3h5--x-3p0--x-3h5--x-3p0--x-3h5-6-|
|-3p0--x-3h5--x-3p0--x-3h5--x-3p0--x-3h5--x-3p0--x-3h5-6-|
Play x 4

|----------------------|-----------------------|
|----------------------|-----------------------|
|----------------------|-----------------------|
|-2h3--2h3--2h3--2h3-4-|-3p0--x-3/5--x-2/3-2/3-|
|-2h3--2h3--2h3--2h3-4-|-3p0--x-3/5--x-2/3-2/3-|
|-2h3--2h3--2h3--2h3-4-|-3p0--x-3/5--x-2/3-2/3-|
Play x 4 | Play x 3

Outro

|------------------------------------|-------------------------------|
|------------------------------------|-------------------------------|
|------------------------------------|-------------------------------|
|-3-0-0-3-0-0-3h5-5-0--3-0-0-7-8-7-0-|-7-8-7-0--7-0-5-0-3-0-3h5-2--2-|
|-3-0-0-3-0-0-3h5-5-0--3-0-0-7-8-7-0-|-7-8-7-0--7-0-5-0-3-0-3h5-2--2-|
|-3-0-0-3-0-0-3h5-5-0--3-0-0-7-8-7-0-|-7-8-7-0--7-0-5-0-3-0-3h5-2--2-|
Play x 3 |

And That's It.

Contact me if you have any comments about this tab.




Ваше мнение



Капча