-----------------------------------------------------------------------------
(HIGH) VISIBILITY - Helmet
-----------------------------------------------------------------------------

Tabbed by an17nin17
Email - [email protected]

Drop D Tuning - D, A, D, G, B, E

Intro

|------|----------------|
|-BASS-|----------------|
|------|----------------|
|------|----------------|
|-ONLY-|----------------|
|------|-3^p0-3^p0-3^p0-|
| Play x 4

Verse

|--------------------|--------------|-------|
|--------------------|--------------|-------|
|--------------------|--------------|-------|
|-3--0-0--3-0-0--3-0-|-0-3-0--0-3p0-|-3p0-0-|
|-3--0-0--3-0-0--3-0-|-0-3-0--0-3p0-|-3p0-0-|
|-3--0-0--3-0-0--3-0-|-0-3-0--0-3p0-|-3p0-0-|
| Play x 18 |

Chorus

|----------------------------------|
|----------------------------------|
|----------------------------------|
|-8-8-8-8-8-8-8-8-8-8-8-8-3p0-0-/8-|
|-8-8-8-8-8-8-8-8-8-8-8-8-3p0-0-/8-|
|-8-8-8-8-8-8-8-8-8-8-8-8-3p0-0-/8-|
Play x 4

Solo
1,2,3| 4|
|-------------------------|----------|----------------------------------|
|-------------------------|----------|----------------------------------|
|-------------------------|----------|----------------------------------|
|-3-0-0-3-0-6-6-5-0-3-0-0-|-/8-8-6-0-|-8-8-8-8-8-8-8-8-8-8-8-8-3p0-0-/8-|
|-3-0-0-3-0-6-6-5-0-3-0-0-|-/8-8-6-0-|-8-8-8-8-8-8-8-8-8-8-8-8-3p0-0-/8-|
|-3-0-0-3-0-6-6-5-0-3-0-0-|-/8-8-6-0-|-8-8-8-8-8-8-8-8-8-8-8-8-3p0-0-/8-|
| Play x 4

Outro

|-----|
|-----|
|-----|
|-5~~-|
|-5~~-|
|-5~~-|

Contact me if you have any comments about this tab.




Ваше мнение



Капча