-----------------------------------------------------------------------------
GIVE IT - Helmet
-----------------------------------------------------------------------------
Tabbed by an17nin17
Email - [email protected]
Drop D Tuning - D, A, D, G, B, E
Intro
|------|-----------------------------------------------------------------|
|-BASS-|-----------------------------------------------------------------|
|------|-----------------------------------------------------------------|
|------|-121212121212121212121212121210101010101010101010101010109-9-9-9-|
|-ONLY-|-121212121212121212121212121210101010101010101010101010109-9-9-9-|
|------|-121212121212121212121212121210101010101010101010101010109-9-9-9-|
|-------------------------------------------------|
|-------------------------------------------------|
|-------------------------------------------------|
|-9-9-9-9-9-9-9-9-9-9-5-5-5-5-5-5-5-5-5-5-5-5-5-5-|
|-9-9-9-9-9-9-9-9-9-9-5-5-5-5-5-5-5-5-5-5-5-5-5-5-|
|-9-9-9-9-9-9-9-9-9-9-5-5-5-5-5-5-5-5-5-5-5-5-5-5-|
Verse
1,5,7| 2,4,6,8| 3|
|-----------|----------------|----------------------|---------------|
|-----------|----------------|----------------------|---------------|
|-----------|----------------|----------------------|---------------|
|-0-0-0-3-0-|-0--0-0-/9-10-9-|-3-3-3-2-2-3-4--4-6-6-|-0--0-0-/10-10-|
|-0-0-0-3-0-|-0--0-0-/9-10-9-|-3-3-3-2-2-3-4--4-6-6-|-0--0-0-/10-10-|
|-0-0-0-3-0-|-0--0-0-/9-10-9-|-3-3-3-2-2-3-4--4-6-6-|-0--0-0-/10-10-|
Chorus
1,3| 2| 4|
|-----------------|-------------|------------|-------------------------|
|-----------------|-------------|------------|-------------------------|
|-----------------|-------------|------------|-------------------------|
|-0-0-0-12-0-0-10-|-0-0-10--6-5-|-2-3-3-/6-6-|-10-10-10-10-10-10-10-10-|
|-0-0-0-12-0-0-10-|-0-0-10--6-5-|-2-3-3-/6-6-|-10-10-10-10-10-10-10-10-|
|-0-0-0-12-0-0-10-|-0-0-10--6-5-|-2-3-3-/6-6-|-10-10-10-10-10-10-10-10-|
1,3,5,7| 2,4,6,8|
|-----------|----------------|----------------------|
|-----------|----------------|----------------------|
|-----------|----------------|----------------------|
|-0-0-0-3-0-|-0--0-0-/9-10-9-|-3-3-3-2-2-3-4--4-6-6-|
|-0-0-0-3-0-|-0--0-0-/9-10-9-|-3-3-3-2-2-3-4--4-6-6-|
|-0-0-0-3-0-|-0--0-0-/9-10-9-|-3-3-3-2-2-3-4--4-6-6-|
1,3| 2,4|
|-----------------|-------------|------------|
|-----------------|-------------|------------|
|-----------------|-------------|------------|
|-0-0-0-12-0-0-10-|-0-0-10--6-5-|-2-3-3-/6-6-|
|-0-0-0-12-0-0-10-|-0-0-10--6-5-|-2-3-3-/6-6-|
|-0-0-0-12-0-0-10-|-0-0-10--6-5-|-2-3-3-/6-6-|
Middle 8
|----------------|
|----------------|
|----------------|
|-0-0-2-4-4--6-6-|
|-0-0-2-4-4--6-6-|
|-0-0-2-4-4--6-6-|
| Guitar 1 Play x 16
|----------------|-----------------|
|----------------|-----------------|
|-5-5-5-5-5-5-5--|-7-7^-7^-7^-7^-7^|
|----------------|-----------------|
|----------------|-----------------|
|----------------|-----------------|
Guitar 2 (enters 4th time)
Play x 4 | Play x 4
Solo
1,2,3,4,5|
|-----------------------------------------|---------------|
|-----------------------------------------|---------------|
|-----------------------------------------|---------------|
|-0-0-0-3-0-0--0-0-3-0-3-0-0-0-3-0--3-3-3-|-2-2-3-2-2-3-3-|
|-0-0-0-3-0-0--0-0-3-0-3-0-0-0-3-0--3-3-3-|-2-2-3-2-2-3-3-|
|-0-0-0-3-0-0--0-0-3-0-3-0-0-0-3-0--3-3-3-|-2-2-3-2-2-3-3-|
6|
|----------------|
|----------------|
|----------------|
|-2-2-3-4--4-6-6-|
|-2-2-3-4--4-6-6-|
|-2-2-3-4--4-6-6-|
1,3| 2,4|
|-----------------|-------------|------------|
|-----------------|-------------|------------|
|-----------------|-------------|------------|
|-0-0-0-12-0-0-10-|-0-0-10--6-5-|-2-3-3-/6-6-|
|-0-0-0-12-0-0-10-|-0-0-10--6-5-|-2-3-3-/6-6-|
|-0-0-0-12-0-0-10-|-0-0-10--6-5-|-2-3-3-/6-6-|
Outro
|----------------|
|----------------|
|----------------|
|-0-0-2-4-4--6-6-|
|-0-0-2-4-4--6-6-|
|-0-0-2-4-4--6-6-|
| Guitar 1 Play x 32
|----------------|------------4-6-|-------------------------|
|-3p0-3p0-3p0-3p0|-----5-7-7------|-3p0-3p0-3p0-3p0-3p0-3p0-|
|-3p0-3p0-3p0-3p0|-7-7------------|-3p0-3p0-3p0-3p0-3p0-3p0-|
|-3p0-3p0-3p0-3p0|----------------|-3p0-3p0-3p0-3p0-3p0-3p0-|
|----------------|----------------|-------------------------|
|----------------|----------------|-------------------------|
Play x 16 | Play x 16 | Play x 2
And That's It
Contact me if you have any comments about this tab.




Ваше мнение



Капча