-----------------------------------------------------------------------------
GEISHA TO GO - Helmet
-----------------------------------------------------------------------------

Tabbed by an17nin17
Email - [email protected]

Standard Tuning - E, A, D, G, B, E

Intro

|-----------------|
|-9-9-9-9-9-9-9-9-|
|-9-9-9-9-9-9-9-9-|
|-9-9-9-9-9-9-9-9-|
|-7-7-7-7-7-7-7-7-|
|-/-/-/-/-/-/-/-/-|
Play x 12

Verse

|---------------|
|---------------|
|-3--4--3--4--6-|
|---------------|
|---------------|
|---------------|
Play x 10

Chorus 1

|---------------|
|---------------|
|-6-0-----0---0-|
|-----1-----1---|
|---------------|
|---------------|
Play x 2

|---------------|
|---------------|
|-3--4--3--4--6-|
|---------------|
|---------------|
|---------------|
Play x 8

Chorus 2

|----5-----1-----5--------1-|-----|
|---------------------------|-2~~-|
|-7-----3-----7-----7--3----|-----|
|---------------------------|-----|
|---------------------------|-----|
|---------------------------|-----|
Play x 2

|---------------|
|---------------|
|-3--4--3--4--6-|
|---------------|
|---------------|
|---------------|
Play x 8

|---------------|
|---------------|
|-6-0-----0---0-|
|-----1-----1---|
|---------------|
|---------------|
Play x 2

|---------------|
|---------------|
|-3--4--3--4--6-|
|---------------|
|---------------|
|---------------|
Play x 8

|----5-----1-----5--------1-|
|---------------------------|
|-7-----3-----7-----7--3----|
|---------------------------|
|---------------------------|
|---------------------------|
Play x 2

Middle 8

|-----------|-------------------|-----------------------|------|
|-----------|-------------------|-----------------------|------|
|-8---3-3-4-|-4^---4^---4^---4^-|-17^---17^---17^---17^-|-17~~-|
|-9---4-4-5-|-------------------|-----------------------|------|
|-9---4-4-5-|-------------------|-----------------------|------|
|-7---2-2-3-|-------------------|-----------------------|------|
Play x 4 | Play x 6 | Play x 2 |

Outro

|---------------|-----|
|---------------|-9~~-|
|-3--4--3--4--6-|-9~~-|
|---------------|-9~~-|
|---------------|-7~~-|
|---------------|-----|
Play x 8 |

And That's it

Contact me if you have any comments about this tab.




Ваше мнение



Капча