-----------------------------------------------------------------------------
FBLA II - Helmet
-----------------------------------------------------------------------------
Tabbed by an17nin17 (or an18nin18)
Email - [email protected]

Tuning - D, A, D, G, B, E

Intro
1,3| 2| 4|
|------------------|--------|----------|---------|
|------------------|--------|----------|---------|
|------------------|--------|----------|---------|
|-0--0--0--2--2--2-|-/6-5-3-|-/6-5-3-5-|-6-7-7-6-|
|-0--0--0--2--2--2-|-/6-5-3-|-/6-5-3-5-|-6-7-7-6-|
|-0--0--0--2--2--2-|-/6-5-3-|-/6-5-3-5-|-6-7-7-6-|

Verse
1,3,5| 2,6| 4|
|---------------------------|---------|----------------|---------------|
|---------------------------|---------|----------------|---------------|
|---------------------------|---------|----------------|---------------|
|-0--0--0-2-0---0--0--0-2-0-|-3-2-0-0-|-10h12-12-12-12-|-6-6-5-0-3-3-5-|
|-0--0--0-2-0---0--0--0-2-0-|-3-2-0-0-|-10h12-12-12-12-|-6-6-5-0-3-3-5-|
|-0--0--0-2-0---0--0--0-2-0-|-3-2-0-0-|-10h12-12-12-12-|-6-6-5-0-3-3-5-|

Chorus

|-----------------------------|
|-----------------------------|
|-----------------------------|
|-0---0---2---2---/6--5--3--5-|
|-0---0---2---2---/6--5--3--5-|
|-0---0---2---2---/6--5--3--5-|
Play x 4
1| 2| 3| 4|
|-------------|----|---------|----|----------------|
|-------------|----|---------|----|----------------|
|-------------|----|---------|----|----------------|
|-0--0--0-2-0-|-x/-|-3-2-0-0-|----|-10h12-12-12-12-|
|-0--0--0-2-0-|-x/-|-3-2-0-0-|-x/-|-10h12-12-12-12-|
|-0--0--0-2-0-|----|-3-2-0-0-|-x/-|-10h12-12-12-12-|

1,3| 2| 4|
|---------------------------|---------|---------------|----------------|
|---------------------------|---------|---------------|----------------|
|---------------------------|---------|---------------|----------------|
|-0--0--0-2-0---0--0--0-2-0-|-3-2-0-0-|-6-6-5-0-3-3-5-|-10h12-12-12-12-|
|-0--0--0-2-0---0--0--0-2-0-|-3-2-0-0-|-6-6-5-0-3-3-5-|-10h12-12-12-12-|
|-0--0--0-2-0---0--0--0-2-0-|-3-2-0-0-|-6-6-5-0-3-3-5-|-10h12-12-12-12-|

|-----------------------------|
|-----------------------------|
|-----------------------------|
|-0---0---2---2---/6--5--3--5-|
|-0---0---2---2---/6--5--3--5-|
|-0---0---2---2---/6--5--3--5-|
Play x 4

Post - Chorus

|----------------------|
|----------------------|
|----------------------|
|-0-0-0-3-5-5-0--0-0-3-|
|-0-0-0-3-5-5-0--0-0-3-|
|-0-0-0-3-5-5-0--0-0-3-|
Play x 8
1| 2| 3| 4|
|-------------|---|---------|-------|---------------|
|-------------|---|---------|-------|---------------|
|-------------|---|---------|-------|---------------|
|-0--0--0-2-0-|-4-|-3-2-0-0-|-6~~-6-|-6-6-5-0-3-3-5-|
|-0--0--0-2-0-|-4-|-3-2-0-0-|-6~~-6-|-6-6-5-0-3-3-5-|
|-0--0--0-2-0-|-4-|-3-2-0-0-|-6~~-6-|-6-6-5-0-3-3-5-|

Pre - Solo

|-------------------------|--------------------------------------|
|-------------------------|--------------------------------------|
|-------------------------|--------------------------------------|
|-x-x-x-x-x-x-x-x-x-x-x-x-|--|
|-x-x-x-x-x-x-x-x-x-x-x-x-|--|
|-x-x-x-x-x-x-x-x-x-x-x-x-|--|
Play x 12 | Play x 12

Solo

|----------------------|
|----------------------|
|----------------------|
|-0-0-0-3-5-5-0--0-0-3-|
|-0-0-0-3-5-5-0--0-0-3-|
|-0-0-0-3-5-5-0--0-0-3-|
Play x 16

Post - Solo
1| 2|
|---------|-----------------------------|--------------------|
|---------|-----------------------------|--------------------|
|---------|-----------------------------|--------------------|
|-6-5---3-|-33320-0-0-2-0-0-0-2-3-3-3-2-|-3-1--1--1--1--1--1-|
|-6-5---3-|-33320-0-0-2-0-0-0-2-3-3-3-2-|-3-1--1--1--1--1--1-|
|-6-5---3-|-33320-0-0-2-0-0-0-2-3-3-3-2-|-3-1--1--1--1--1--1-|
PM...............

Outro

|-----------------------------|------|
|-----------------------------|------|
|-----------------------------|------|
|-0---0---2---2---/6--5--3--5-|-3--3-|
|-0---0---2---2---/6--5--3--5-|-3--3-|
|-0---0---2---2---/6--5--3--5-|-3--3-|
Play x 8 |

And Thats it. Oh and by the way, this is the only FBLA II tab on the net (apart
from the one I did on Mxtabs) so give me credit if you copy it (if anyone ever
looks at this tab) and PLEASE RATE IT!!, and if you know how to do the solo,
contact me and I will give you credit, and that goes for any helmet tabs.




Ваше мнение



Капча